• Streaming gitaar liedjes spelen
  • Leer gitaar spelen & gitaarlessen
  • 80.000 leden
Ik wil je

Artiest:	Guus Meeuwis
Album:	
Capo:	3
Tuning:	E-A-D-G-B-E
uitgezocht door:	A. Rutten

--------------------------------------------------------------------

Capo 3     

Em = E Mineur = -0-2-2-0-0-0-
G = G = -3-2-0-0-0-3-
D = D = -X-X-0-2-3-2- 
C = C = -X-3-2-0-1-0-


Intro:
   “Em”
e|-----------------------------|------------------|------------|
B|-------------------2-2--2--0-|----(7)b8r7-------|------------|
G|-------------------2-2--2--0-|-/9---------9-7-9-|------------|
D|----(5)b6r5--------2-2--2--0-|------------------|-7-5-7--52-|
A|-/7---------7----------------|------------------|------------|
E|--------------6-7------------|------------------|------------|

    Em
Ze likt aan haar glas terwijl ze naar hem lacht

hij stapt op haar toe ze had het wel verwacht

Morgen heeft ze spijt dat weet ze veel te goed
                                                      C
toch doet ze het opnieuw en opnieuw en opnieuw en opnieuw
                         D
Wie kan het wat schelen zo zijn er zo velen

 G        Em
Ik wil je, blijf bij me 
 C         D               G
hou van me, ga nooit meer weg

 G        Em
Ik wil je, blijf bij me 
 C        D                Em
hou van me, ik word stapelgek

  “Em”
e|---------------|------|
B|---------------|------|
G|-----9p7-------|--92-|
D|-----9p7----9--|--92-|
A|-7-------10----|------|
E|---------------|------|

Em
Alles wat ze zegt klink vals en koud

zelfs als ze zegt dat ze van hem houdt

Ze weet dat ze liegt toch zegt ze het opnieuw

en opnieuw en opnieuw en opnieuw en opnieuw en 

opnieuw en opnieuw en opnieuw
C                        D
Wie kan het wat schelen zo zijn er zo velen

G        Em
Ik wil je, blijf bij me 
 C         D               G
hou van me, ga nooit meer weg

G        Em
Ik wil je, blijf bij me 
 C        D                G
hou van me, ik word stapelgek

 G        Em
Ik wil je, blijf bij me 
 C         D            C
hou van me, zegt ze opnieuw, 
 
      D         Em
en opnieuw elke nacht

  “Em”        “C”
e|---|-----|--------------------------------------|-10-10-10-10-|
B|---|-8---|-(11)b12-b12-10-----10-12-------------|-------------|
G|-9-|---9-|----------------12--------12-12-12-12-|-------------|
D|---|-----|--------------------------------------|-------------|
A|---|-----|--------------------------------------|-------------|
E|---|-----|--------------------------------------|-------------|
            “Em”                             “C” “D”
e|-------------------------------------|-------|-----------------------------------|
B|-12p10----12-12---12p10----10-12-----|-------|-----------------------------------|
G|-------12---------------12-------12--|--7--9-|---------------------------7-7h9p7-|
D|-------------------------------------|-------|-------------7-7h9-9h10-10---------|
A|-------------------------------------|-------|-7h9-9h10-10-----------------------|
E|-------------------------------------|-------|-----------------------------------|

G        Em
Ik wil je, blijf bij me 
 C         D               G
hou van me, ga nooit meer weg

G        Em
Ik wil je, blijf bij me 
 C        D                G
hou van me, ik word stapelgek

G        Em
Ik wil je, blijf bij me 
 C         D               G
hou van me, ga nooit meer weg

G        Em
Ik wil je, blijf bij me 
 C        D                G|
hou van me, ik word stapelgek

Ik wil je, blijf bij me 
hou van me, ga nooit meer weg

Ik wil je, blijf bij me
hou van me, ik word stapelgek

G        Em
Ik wil je, blijf bij me 
 C         D               G
hou van me, ga nooit meer weg

G        Em
Ik wil je, blijf bij me 
 C        D                G
hou van me, ik word stapelgek

Ik wil je, blijf bij me 
hou van me, ga nooit meer weg

Ik wil je, blijf bij me
hou van me, ik word stapelgek

Ik wil je, blijf bij me 
hou van me, ga nooit meer weg

Ik wil je, blijf bij me
hou van me, ik word stapelgek

Outro: G | % | % | G--- |


More info