• Streaming gitaar liedjes spelen
  • Leer gitaar spelen & gitaarlessen
  • 80.000 leden
Stille nacht Heilige nacht 
Artiest: kerstmis 
Album: Christmas 
Capo:  
Tuning: E-A-D-G-B-E 
uitgezocht door: o.a. Mula 

--------------------------------------------------------------------------

Hieronder de Protestantse versie, de Katholiekje versie, een 
TAB-versie en helamaal onderaan de geschiedenis van dit lied. 


C      x32010
G7     320001
F      133211
G#dim  x23131   of  xx6767 


Protestantse versie: 

C
Stille nacht, Heilige nacht,
G7           C 
David's zoon lang verwacht.
F		   C
Die miljoenen eens zaligen zal,
F                C
Wordt geboren in Bethlehems stal.
G7	 G#dim      C
Hij, der schepselen heer,
C          G7        C
Hij, der schepselen heer. 


Hulp'loos kind, Heilig kind,
Dat zo trouw zondaars mint.
Ook voor mij hebt G'U rijkdom ontzegd,
Werd G'in stro en in doeken gelegd.
Leer m'U danken daarvoor,
Leer m'U danken daarvoor. 

Stille nacht, Heilige nacht,
Heil en vree wordt gebracht.
Aan een wereld, verloren in schuld,
God's belofte wordt heerlijk vervuld.
Amen, Gode zij d'eer,
Amen, Gode zij d'eer.




Katholieke versie: 

Stille nacht, heilige nacht,
Alles slaapt, sluimer zacht.
Eenzaam waakt het hoogheilige paar,
Lieflijk Kindje met goud in het haar,
Sluimert in hemelse rust
Sluimert in hemelse rust. 
Stille nacht, heilige nacht
Zoon van God, liefde lacht
Vriend'lijk om Uwe God'lijke mond,
Nu ons slaat de reddende stond,
Jezus van Uwe geboort',
Jezus van Uwe geboort'. 

Stille nacht, heilige nacht,
Herders zien 't eerst Uw pracht;
Door der eng'len alleluja
Galmt het luide van verre en na:
Jezus de redder ligt daar,
Jezus de redder ligt daar.


========================================================
========================================================

                                SILENT NIGHT

Words and Music by Franz Gruber
Arranged by Stephen C. Siktberg
Transcribed by Jonnie Tamares  jamwithjonnie@yahoo.com

 Intro
  Q=74
 3/4
  Gtr I
|-------------|-------------|-------------|-------------||
|-------------|-------------|-------------|-------------||
|-----4h5-4---|-----0h2-0---|-----4h5-4---|-----0h2-0---||
|---0-------0-|---0-------0-|---0-------0-|---0-------0-||
|-0-----------|-0-----------|-0-----------|-0-----------||
|-------------|-------------|-------------|-------------||


 Verse 1
|------------------|----------------------|
|-3-(3)-(3)5-3-(3)-|-0-(0)-(0)(0)-(0)-(0)-|
|--------4h5-4-----|--------0h=2---0------|
|----0----------0--|----0--------------0--|
|-0----------------|-0--------------------|
|------------------|----------------------|


|------------------|----------------------|
|-3-(3)-(3)5-3-(3)-|-0-(0)-(0)(0)-(0)-(0)-|
|--------4h5-4-----|--------0h=2---0------|
|----0----------0--|----0--------------0--|
|-0----------------|-0--------------------|
|------------------|----------------------|


|-5-(5)-(5)-(5)-5-(5)-|-2-(2)-(2)-(2)-(2)-(2)-|
|--------7---5--7-----|--------1---0---1------|
|----5-------------5--|----2---------------2--|
|---------------------|-----------------------|
|---------------------|-----------------------|
|-0-------------------|-0---------------------|


|-3-(3)-(3)(3)-3-(3)-|----------------------|
|--------0h=1--0-----|-3-(3)-(3)(3)-(3)-(3)-|
|----0------------0--|--------0h=2---0------|
|--------------------|----0--------------0--|
|-0------------------|-0-------------4------|
|--------------------|----------------------|


|--------------------|-0-(0)-(0)---------|
|-5-(5)-(5)(5)-5-(5)-|-8-(8)-(8)-7-5-(5)-|
|--------5h=7--5-----|--------5--7-5-----|
|----5------------5--|----5-----------5--|
|-5------------------|-5-----------------|
|--------------------|-------------------|


|-------------------|----------------------|
|-3-(3)-(3)-5-3-(3)-|-0-(0)-(0)(0)-(0)-(0)-|
|--------4--5-4-----|--------0h=2---0------|
|----0-----------0--|----0--------------0--|
|-0-----------------|-0-------------4------|
|-------------------|----------------------|


|--------------------|-0-(0)-(0)---------|
|-5-(5)-(5)(5)-5-(5)-|-8-(8)-(8)-7-5-(5)-|
|--------5h=7--5-----|--------5--7-5-----|
|----5------------5--|----5-----------5--|
|-5------------------|-5-----------------|
|--------------------|-------------------|


|-------------------|----------------------|
|-3-(3)-(3)-5-3-(3)-|-0-(0)-(0)(0)-(0)-(0)-|
|--------4--5-4-----|--------0h=2---0------|
|----0-----------0--|----0--------------0--|
|-0-----------------|-0-------------4------|
|-------------------|----------------------|


|-5-(5)-(5)-(5)-5-(5)-|-8-(8)-(8)-5-------|
|--------7---5--7-----|--------7--5-7-(7)-|
|----5-------------5--|----5--------7--5--|
|---------------------|-------------------|
|---------------------|-------------------|
|-0-------------------|-0-----------------|


|-----------------------|-7-----------|
|-8-(8)-(8)-(8)-(8)-(8)-|---------0---|
|----7-------0----------|-------0---7-|
|-9------9-------0------|-----0-------|
|-0------------------4--|-0-4---------|
|----------------------
-|-------------|


|-3-----------|---------------|-------------|-------------||
|-3---3---0---|-3-------1-----|-----0h1-0---|-------------||
|-4---4---0---|-2-------0-2---|-0-----------|-----0h2-0---||
|-----5---0---|-4-------2-4---|---0-------0-|---0-------0-||
|---0---0---0-|---------------|-0-----------|-0-----------||
|-------------|---0-(0)-----0-|-------------|-------------||


 Verse 2
|---------------------|---------------|---------------------|---------------|
|-[3]-----[5]-[3]-----|-[0]-----------|-[3]-----[5]-[3]-----|-[0]-----------|
|-------4--5---4------|-------0h2-0---|-------4--5---4------|-------0h2-0---|
|-----0------------0--|-----0-------0-|-----0------------0--|-----0-------0-|
|--0------(0)-(0)-(0)-|--0------------|--0------(0)-(0)-(0)-|--0------------|
|---------------------|---------------|---------------------|---------------|


|-[5]-------[5]-----|-[2]-----------|-[3]-------[3]---|-----------------|
|-------7h8--7------|-------1h3-1---|-------0h1--0----|-[3]-------------|
|-----5----------5--|-----2-------2-|-----0---------0-|-------0h2-0-----|
|-------------------|---------------|-----------------|-----0--------0--|
|-------------------|---------------|--0--------------|--0--------4-(4)-|
|--0--------(0)-(0)-|--0------------|-----------------|-----------------|


|---------------------|-0-(0)-(0)---------|
|-5-(5)-(5)-(5)-5-(5)-|-8-(8)-(8)-7-5-(5)-|
|--------5------5-----|--------5--7-5-----|
|----5-------5-----5--|----5-----------5--|
|-5-------------------|-5-----------------|
|---------------------|-------------------|


|-------------------|----------------------|
|-3-(3)-(3)-5-3-(3)-|-0-(0)-(0)(0)-(0)-(0)-|
|--------4--5-4-----|--------0h=2---0------|
|----0-----------0--|----0--------------0--|
|-0-----------------|-0-------------4------|
|-------------------|----------------------|


|-5-(5)-(5)-(5)-5-(5)-|-8-(8)-(8)-5-------|
|--------7---5--7-----|--------7--5-7-(7)-|
|----5-------------5--|----5--------7-----|
|---------------------|---------------10--|
|---------------------|-------------------|
|-0-------------------|-0-----------------|


|-----------------------|-7-----------|
|-8-(8)-(8)-(8)-(8)-(8)-|---------0---|
|----7-------0----------|-------0---7-|
|-9------9-------0------|-----0-------|
|-0------------------4--|-0-4---------|
|-----------------------|-------------|


|-3-----------|---------------|-------------|--------------------------||
|-3---3---0---|-3-------1-----|-----0h1-0---|-------------<12>-----<7>-||
|-4---4---0---|-2-------0-2---|-0-----------|--------<12>------<7>-----||
|-----5---0---|-4-------2-4---|---0-------0-|---<12>-------------------||
|---0---0---0-|---------------|-0-----------|-0------------------------||
|-------------|---0-(0)-----0-|-------------|--------------------------||


 Outro
  H.=H
|-------------------------------|-------------------------|
|---------------------<12>------|------------[1]----------|
|-<12>--------------------------|----------------[2]------|
|-----------<12>----------------|-<12>---------------<12>-|
|------<12>------<12>------<12>-|-------------------------|
|-------------------------------|------<12>---------------|


|------------------------------|---------*|
|---------------------<12>-----|---------*|
|-<12>-----------<12>------<7>-|-<12>----*|
|-----------<12>---------------|---------*|
|------<12>--------------------|---------*|
|------------------------------|---------*|




======================================================================
======================================================================


Voor meer info over dit lied: 
http://web.inter.nl.net/users/R.Thiesen/  


Het is 24 december 1818. Kapelaan Josef Mohr van de St. Nicolaas parochie in 
Oberndorf bij Salzburg heeft samen met organist Franz Gruber een probleem. 
De orgel in de kerk is kapot en kan dus niet gebruikt worden in de 
kerstvieringen. Om toch een feestelijke viering te kunnen hebben, stelt 
Josef Mohr aan zijn organist voor om een lied te maken. Mohr heeft een gedicht
dat hij in 1816 geschreven heeft. Gruber neemt het gedicht mee en schrijft er 
diezelfde dag een melodie bij voor twee mannenstemmen en koor, met begeleiding
van een gitaar. Diezelfde kerstnacht wordt het lied met zes coupletten voor de eerste keer uitgevoerd.

Het lied Stille Nacht Heilige Nacht blijft voorlopig alleen in Oberndorf 
bekend. De orgelbouwer Karl Mauracher komt in 1824/25 in Oberndorf en hij neemt
het lied mee naar Fügen in Tirol. Hier geeft hij het aan de familie Strasser. 
Deze familie maakt handschoenen en treedt ook als familiekoor op. Zij reizen
jaarmarkten en tentoonstellingen af. Op deze wijze geven zij een concert in
Leipzig in 1832 waarbij zij ook het lied Stille Nacht Heilige Nacht zingen. 
Een ander familiekoor uit Tirol, de familie Rainer, zingt het lied in 1839 in 
New York voor de uitgebrande Trinity Church. Op deze wijze wordt het lied over
Europa en Amerika en verder naar de andere werelddelen verspreid.

More info