gemakkelijke liedjes

De leukste liedjes per e-mail

Ontvang direct (gemakkelijke) liedjes per mail in pdf (ProTabs) en online liedjes die je kunt downloaden, online bekijken en printen.

INTRO:

E|-----------------2--------------------|
B|-4p2-----------2-----2-------2--------|
G|-----3---3---3---------3---3---3b3-1--|
D|-------4---4-------------4------------|
A|--------------------------------------|
E|--------------------------------------|

E|-11111--------------------------------|
B|--------4-22222-0---------------------|
G|-------------------33333-1------------|
D|----------------------------4---------|
A|--------------------------------------|
E|--------------------------------------|

  F#                              C#
Rosanne ik weet dat er heel veel mannen zijn
                             B            F#
Elke keer weer een a
...... Helaas, de rest is alleen voor leden /  Members only please subscribe .......
Gitaar Tabs

Speel de Chord van Nick En Simon - Rosanne

Meld je direct aan, pak je gitaar en speel binnen 15 sec mee - Chord van Nick En Simon - Rosanne.
Reeds 65.000 gitaristen zijn je voorgegaan.

DIRECT AANMELDEN >> Nick En Simon - Rosanne <<  

Beoordeel deze tab: Nick En Simon - Rosanne


Comments: Nick En Simon - Rosanne - chords

5
darm87

Darm87 2012-01-18

en?



Plaats bericht voor Nick En Simon - Rosanne

Via onderstaande formulier kan je een comment plaatsen bij de chords van Nick En Simon met Rosanne.