• Streaming gitaar liedjes spelen
  • Leer gitaar spelen & gitaarlessen
  • 80.000 leden
Chord versie
Copy/paste van de Tabversie van Rob Watson op UG
zonder de lange solo's



standard tuning 
      EADGBe
Bsus2 224422
F#m   244222
Asus4 002230
Esus4 022200

Intro   

  Bsus2                   F#m    Bsus2               F#m     A  

E|----------------------2|------|----2--------------|--2----|-----------------|
B|----2-------2h3p2------|-2h3p2|------2h3p2---3---2|--2----|-----5-2h3-------|
G|--------2---4-----4-4--|-2----|--4---4-----4---4--|-------|-------------2-2-|
D|--4---4---4-4-----4----|-4----|2-----4------------|4------|--s2------2------|
A|2-----------------2----|------|-------------------|-------|0----------------|
E|-----------------------|------|-------------------|----2-4|-----------------|

  E                      F#m E D   F#m
                         2/4   4/4
E|----0---0-------------|----0|2--|----2---------------|----------------|
B|----------------------|----0|3--|----2---------------|----------------|
G|1---------1h2---2p1---|2---1|2--|----2--4b5r4p2-4----|----------------|
D|2-2---2---2---2-----2-|4---2|0--|----4---------------|----------------|
A|----------------------|4---2|---|--------------------|----------------|
E|----------------------|2---0|---|2-------------------|---------
>> Registreer, speel & download <<
Meld nu aan en speel de rest van Rory Gallagher - For The Last Time

>> Registreer, speel & download <<
-------|


Bsus2                         F#m

You've done me wrong, for the last time 

 Bsus2                             F#m

You've sung your song, now I'm going to sing mine, out 

 A     Asus4  A    E    Esus4 E   F#m  E   D          F#m

 loud,          so loud           like the rolling    sea 


Bsus2                         F#m

You've played around, for the last time 

 Bsus2                               F#m

You've shown your claws, now I'm going to show mine, watch 

 A   Asus4 A   E             Esus4 E   F#m E   D       F#m

 out           I'll be about           in  the night 

 guitar solo  
     

Bsus2                      F#m

You ran around, since the very first day 

 Bsus2                          F#m

You've had your moment now I'm gonna have my play, so 

 A     Asus4 A           E    Esus4 E   F#m E   D       F#m

 long            I'll be gone           in  the night 

 

Bsus2                       F#m

You've put me down for the very last time 

 Bsus2                  F#m

I hit the floor but I got up on the count of nine 

 A       Asus4 A        E   Esus4 E   F#m  E   D       F#m

 goodbye          don't cry           when I'm gone.

 guitar solo 

F#m  E   D   

More info