• Streaming gitaar liedjes spelen
  • Leer gitaar spelen & gitaarlessen
  • 80.000 leden
Als Er In Een Stuk geen Akkoorden Staan Zijn Die Hetzelfde Als in Een Eerder
Stuk Je Hoort Vanzelf Welk Akkoorden Schema Er Bij De Niet Geakkoneerde Stukken Moeten....Have Fun...Dre

C = C = -X-3-2-0-1-0-
G7 = G Zeven = -3-2-0-0-0-1-
Am = A Mineur = -X-0-2-1-1-0-
Dm = D Mineur = -X-X-0-2-3-1-
Gsus4 = G sus Vier = -3-2-0-0-1-3-
G = G = -3-2-0-0-0-3-

--- - Fade out
/   - Slide up

Maat: 3/4

Sinterklaas - Hoor de wind waait door de bomen

Couplet:
      “C”                     “G7”        “C”
e|-----0--------0-3---0------0-1-------------------------|
B|-------1----1------------3-------3---0-0-1-------------|
G|-0-0------0-------0---0--------0---0-------0---0-------|
D|---------------------------------------------2---------|
A|-----3----------3------------------------3-------------|
E|-----------------------------3-------------------------|
      “C”                      “G7”        “Am”
e|-----0----------0-3---0-----0-1-----/5-3-1-0---------0-|
B|---------1----1-----------3-----0-----------1---1-3----|
G|-0-0---0----0-------0---0---------0-----------2--------|
D|-------------------------------------------------------|
A|-----3------------3-----------------------0------------|
E|------------------------------3------------------------|
  “Dm”  “Gsus4””G””C”
e|-1-----------------------------------------------------|
B|---3---3-1-0--1-------1--------------------------------|
G|-----2------------0------------------------------------|
D|-0--------------2---2----------------------------------|
A|--------------3----------------------------------------|
E|---------3---------------------------------------------|

        C 
Hoor de wind waait door de bomen
         G7  
                C
Hier in huis zelfs waait de wind
        C
Zou de goede Sint wel komen
    G7                    Am 
Nu hij 't weer zo lelijk vindt?
           Dm     Gsus4 G C
Nu hij 't weer zo lelijk vindt?

Couplet 2: 
      “Am”                                 “G”
e|-----0-------0-0-5---0----0---------0-----3-------------|
B|-------1---1-----------1----3-1-------3-1---0---0-------|
G|---------2---------5------------2-------------0---------|
D|----------------------------------2---------------------|
A|-3-2-0-----------0------------0-------------------------|
E|------------------------------------------3-------------|
      “C”                       “Dm”         “Am”
e|-----0----------0-3---0------0-1-----/5-3-1-0---------0-|
B|---------1----1---------1--3-------3------------1---3---|
G|-0-0---0----0-------0------------2------------2---2-----|
D|-------------------------------0------------------------|
A|-----3------------3-------------------------0-----------|
E|--------------------------------------------------------|
  “G7”        “C---“
e|-1---------------0--------------------------------------|
B|-----0---0-0----1---------------------------------------|
G|---0---0-------0----------------------------------------|
D|--------------2-----------------------------------------|
A|-------------3------------------------------------------|
E|-3------------------------------------------------------|

        Am              
Ja hij rijdt in donk're nachten
                        G
Op zijn paardje, oh zo snel
        C   
Als hij wist hoezeer wij wachten
       Dm              Am 
Ja dan kwam hij zeker wel
        G7             C----
Ja dan kwam hij zeker wel

More info

Comments Sinterklaas - Hoor De Wind Waait Door De Bomen - chords

holve

Holve 2013-11-13

Leuk! Alleen zou je bij het stukje" ...daar waait de wind" omlaag moeten gaan. Het past wel bij "nu hij het weer zo lelijk vindt" (regel 4). " Hier in huis daar waait de wind" (regel 2) zou volgens mij dit moeten zijn: g2-bo-b1-g2-d2-d4-go groet, esther