• Streaming gitaar liedjes spelen
  • Leer gitaar spelen & gitaarlessen
  • 80.000 leden
AKKOORDEN:
G5    320033     D     XX0232
Dsus2 XX0230     Em7   X22033
Cadd9 X32033


 1 INTRO & COUPLET a)
 E-------------7----------------0-------------0-------------0---------------
 B----4---5-----------------------0-------------0-------------0-------------
 G---4------------------------2-----2-------2-----2-------2-----------------
 D--4-----------------------2-------------2-------------2-------------------
 A--------------------------------------0-------------0---------------------
 E------------------------2-------------------------------------------------
 "Ik doe mijn best        om wakker te blijven. Maar mijn ogen vallen dicht."
 enz.


 2 COUPLET b)
 E-------------0--------------------5------------------0--------------------
 B-----------0---0--------------2-3----------------------0------------------
 G---------2-------2-----------2-----------2---------2-----2----------------
 D-------3--------------------2----------2---------2------------------------
 A-------------------------------------0---------0--------------------------
 E--------------------------------------------------------------------------
 "Er zit veel te veel te hoog.                   Op het randje van"

 E--------0--------------------
 B----------0------------------
 G------2-----2----------------
 D----2------------------------
 A--0--------------------------
 E-----------------------------
 "de slaap.


 3 REFREIN)
 E-------------1-------------------0------
 B-----------3---3-------------------0----
 G---------2-------2-------------2-----2--
 D-------0---------------------2----------
 A---------------------------0------------
 E----------------------------------------
 "Het is laat.        Ik ben moe."
 "Teveel gedronken.  T
eveel gepraat.

 E-------------0--------------0-------------------0----------------5--------
 B-----------0---0----------0---0---------------0---0-----------2-3---------
 G---------2-------2------2-------2-----------2-------2--------2------------
 D-------3--------------4-------------------3-----------------2-------------
 A--------------------------------------------------------------------------
 E---------------------------------------------------------------------0----
 "Teveel gerookt     en nog meer gepraat. Ik ben moe."

 E------------------7----------------0-------------0------------------------
 B---------4---5-----------------------0-------------0----------------------
 G--------4------------------------2-----2-------2-----2---1--2-------------
 D-------4-----------------------2-------------2-----------2--2-------------
 A-------------------------------------------0------------------------------
 E-----------------------------2--------------------------------------------
 "Het is laat."




TEKST:

Ik doe mijn best
om wakker te blijven.
Maar mijn ogen vallen dicht.
Ik hou maar net m'n evenwicht.
Op het randje van de slaap.

Ik doe mijn best
om niet iets raars te zeggen.
Want mijn mond valt bijna droog.
Er zit veel te veel te hoog.
Op het randje van de slaap.

Het is laat.
Ik ben moe.
Teveel gedronken.
Teveel gepraat.
Teveel gerookt en nog meer gepraat.
Ik ben moe.
Het is laat.

Ik doe mijn best
om niet te blijven zwijgen.
Maar mijn stiltes vallen op.
En jij weet wat ik verstop.
Op het randje van de slaap.

Het is laat.
Ik ben moe.
Teveel gedronken.
Teveel gepraat.
Teveel gerookt en nog meer gepraat.
Ik ben moe.
Het is laat.

Het is laat.
Het is laat.
Het is laat.
Het is laat...

More info