• Streaming gitaar liedjes spelen
  • Leer gitaar spelen & gitaarlessen
  • 80.000 leden
  x=percussieslag
  h=hammer-on
  ~=vibrato
  
Hoofdriff (bas D pedaal)

  D5/A  F5/C     G5/D  D5/A

E --------------|--------------|
B 3-----6-------|8-----3-------|
G 2-----5-------|7-----2-------|       
D --000-----000-|--000-----000-|
A --------------|--------------|
E --------------|--------------|

Hoofdriff met overgang naar refrein

E --------------|--------------------|
B 3-----6-------|8-----3-------------|
G 2-----5-------|7-----2-------------|       
D --000-----000-|--000---3-2-1-0-----|
A --------------|----------------3-2-|
E --------------|--------------------|

Refrein gitaar

  A5    Am7/C    D/F#  A5

E --------------|--------------|
B ------5-------|--------------|
G 2-----5-------|------2-------|
D 2-----5-------|4-----2-------|
A 0---
0-0-------|5---0-0-------|
E --------------|--------------|

Refrein bas

G --------------|------------------|
D ------5---4h5-|4-----------------|
A 0---x---------|----x-0-----------|
E --------------|---------0-3--3-5~|

Solo (helaas, zelf uitzoeken!)/basnoten:

1 x: E - D - G - D
3 x: D - F - G - D

Outro (bas speelt grondtonen), laat akkoorden doorklinken

  Dsus2          Csus2          Bm

E --------------|--------------|--------------|--------------|
B ------5-------|------3-------|------3-------|--------------|
G ----7----7----|----5----5----|----4----4----|--------------|
D --7--------7--|--5-----------|--4--------4--|--------------|
A 5-------------|3-------------|2-------------|--------------|
E --------------|--------------|--------------|-6~-5~-3~-1~--|

More info

Comments Herman Brood - Saturday Night - tab

110823

110823 2011-12-11

Wel jammer dat er zoveel reacties moeten komen, en dat er niets mee word gedaan, ik zou het allemaal gebruiken om de tab te vereteren


darm87

Darm87 2011-03-11

n klein (maar mooi) overgangetje ontbreekt

E --------
B --------
G --------
D ---0h3-0
A 0h3-----
E --------




hamster

Hamster 2010-03-05

nee is waar

 

 

 


rowen0224

Rowen0224 2010-02-10

het klopt niet helemaal ;)


luckynl

Luckynl 2009-08-06

Hier is de solo:

e|---------------------------------------------------------------------------
B|---------------------------------------------------------------------------
G|-------5-------------5h7---------------------------------------------------
D|--5h7-----7fb--7~---------5h7--3h5--0--3--3hbr--0--------------------------
A|---------------------------------------------------5-----------------------
E|---------------------------------------------------------------------------

e|---------------------------------------------------------------------------
B|---------------------------------------------------------------------------
G|------------------------5--------------------------------------10--12fb----
D|--0--3p0--3--5--3--5h7-----7p5--3--3hb-----------------10--12--------------
A|----------------------------------------5--5/8--10/12----------------------
E|---------------------------------------------------------------------------

e|--10-------------10--------10-------------10--13fb--(13)--13--10-13-10-10--
B|------13p10----------13fb------13p10---------------------------------------
G|-------------12-----------------------12-----------------------------------
D|---------------------------------------------------------------------------
A|---------------------------------------------------------------------------
E|---------------------------------------------------------------------------

NOTE: bend the 17b and 17br 1 1/4
e|----------------------------------------------------------17b--17br--17~---
B|--13fb---------15-15-------15-15-------15-15-------15-15-------------------
G|----------14fb--------14fb--------14fb--------14fb-------------------------
D|---------------------------------------------------------------------------
A|---------------------------------------------------------------------------
E|---------------------------------------------------------------------------

NOTE: bend the 18b 3/4, the first 13b 1/4 and the second 13b 1/2.
e|--15h17p15------15-------15--13b--10---------13b---------------------------
B|------------18------18b---------------13p10-------13p10-------10------10---
G|---------------------------------------------------------12fb-----12-------
D|---------------------------------------------------------------------------
A|---------------------------------------------------------------------------
E|---------------------------------------------------------------------------

e|---------------------------------------------------------------------------
B|---------------------------------------------------------------------------
G|--12p10--12--10------10--10h12--10------10---------------------------------
D|-----------------12-----------------12------12-----------------------------
A|-------------------------------------------(10)--12--11--10--9/8-----------
E|------------------------------------------------------------------10-------


luckynl

Luckynl 2009-08-06

Oops, eerste stuk moet zijn:

e|---------------------
B|---------------------
G|-------5--7fb--7~----
D|--5h7----------------
A|---------------------
E|---------------------