• Streaming gitaar liedjes spelen
  • Leer gitaar spelen & gitaarlessen
  • 80.000 leden
Title: Let It Go / Laat Het Los
SubTitle: Frozen
Artist: Idina Menzel
Album: Frozen
Tabber: Vicsgitaarschool & Gitaartabs
Tempo = 120

Legend
L - tied note
x - dead note
h - hammer on/pull off
b - bend
s - slide
~ - vibrato
g - ghost note
> - accentuated note
t - trill
M - palm mute
. - staccato
P - popping (bass)
S - slapping (bass)
+ - tapping
W - wide vibrato
< - fade in
w - whammy bar
= - tremolo picking
v - brush up
^ - brush down
V - pick stroke up
n - pick stroke down


E |--0-----0-----0-----0--0----|--0-------------------------|
B |----------------------------|-----3--1--1-----------1----|
G |----------------------------|--------------------2-------|
D |----------------------------|----------------------------|
A |----------------------------|----------------------------|
E |----------------------------|----------------------------|


----------------------------|-------|--0--0--0--0L-0--3L-3--3L---|
--3--3-----1-----1----------|-------|----------------------------|
--------------------2L------|--2----|----------------------------|
----------------------------|-------|----------------------------|
----------------------------|-------|----------------------------|
----------------------------|-------|----------------------------|


--3--1L-1-------------------|----------------------------|-------|
--------------------1--1----|--3--3-----3-----1----------|-------|
----------------------------|-----------------------2L---|--2----|
----------------------------|----------------------------|-------|
----------------------------|----------------------------|-------|
----------------------------|----------------------------|-------|


--------0--0-----3-----5L---|--5--1L-1--0-----3-----1L---|
----------------------------|----------------------------|
----------------------------|----------------------------|
----------------------------|----------------------------|
----------------------------|----------------------------|
----------------------------|----------------------------|


--1--1-----1-----------0L---|--0----|--------0--0----------------|
--------------------3-------|-------|--------------3--1L-1--3L---|
----------------------------|-------|----------------------------|
----------------------------|-------|----------------------------|
----------------------------|-------|----------------------------|
----------------------------|-------|----------------------------|


-----0L-0L-0L---|--0L---|--0L---|--0L----0L-0L----0L----0L---|
--3-----3--1----|-------|-------|--------1--1-----1-----1L---|
----------------|--2L---|--2----|----------------------------|
----------------|-------|-------|----------------------------|
----------------|-------|-------|----------------------------|
----------------|-------|-------|----------------------------|


--0L----0L-0L-0L-0L-0L-0L---|--0-------------------------|
--1--------------1L-1--3----|--------3--1--3--1L-1--1----|
--------0--0L-0-------------|----------------------------|
----------------------------|----------------------------|
----------------------------|----------------------------|
----------------------------|----------------------------|


-----------------1L-1--0L---|--0-------------------------|
--3--1L-1--3L-3-------------|-----------------1L-1--1L---|
----------------------------|--------0--0L-0-------------|
------------
>> Registreer, speel & download <<
Meld nu aan en speel de rest van Idina Menzel - Let It Go / Laat Het Los

>> Registreer, speel & download <<
----------------|----------------------------|
----------------------------|----------------------------|
----------------------------|----------------------------|


----------------------------|----------------------------|
--1--------------1L-1--3L---|--3-----------------1--3L---|
--------0--0L-0-------------|----------------------------|
----------------------------|----------------------------|
----------------------------|----------------------------|
----------------------------|----------------------------|


-----0L-0--1L-1L------------|--1L----------1-------------|
--3-------------------------|-----------------------1L---|
----------------------------|-----------------0--0-------|
----------------------------|----------------------------|
----------------------------|----------------------------|
----------------------------|----------------------------|


----------------------------|----------------------------|
--1L----------1--------3L---|--3-----------------1--3----|
-----------------0--0-------|----------------------------|
----------------------------|----------------------------|
----------------------------|----------------------------|
----------------------------|----------------------------|


--0-----1--0----------------|----------------------------|
-----------------3--1L------|--1L----------1--------1L---|
----------------------------|-----------------0--0-------|
----------------------------|----------------------------|
----------------------------|----------------------------|
----------------------------|----------------------------|


----------------------------|----------------------------|
--1L----------1--------3L---|--3-----------------1--3----|
-----------------0--0-------|----------------------------|
----------------------------|----------------------------|
----------------------------|----------------------------|
----------------------------|----------------------------|


--0-----1--0----------------|-------|--3-----------0-------------|
-----------------3--1L------|--1----|-----------------------3L---|
----------------------------|-------|----------------------------|
----------------------------|-------|----------------------------|
----------------------------|-------|----------------------------|
----------------------------|-------|----------------------------|


----------------------------|--3--0----|----------------------------|
--3-----------------1--1----|----------|--1-----------------1--1----|
----------------------------|----------|----------------------------|
----------------------------|----------|----------------------------|
----------------------------|----------|----------------------------|
----------------------------|----------|----------------------------|


----------------------------|-------|----------------------------|
--0-------------------------|-------|----------------------------|
--------------0--------0L---|--0----|----------------------------|
----------------------------|-------|--3-----3--2--3--2--2--3----|
----------------------------|-------|----------------------------|
----------------------------|-------|----------------------------|


----------------------------||
----------------------------||
----------------------------||
--2-------------------------||
-----3L-3-------------------||
----------------------------||


More info

Comments Idina Menzel - Let It Go / Laat Het Los - tab

Luce

Luce 2019-02-02

Ik snap niet wat ik moet doen sorryšŸ˜Š


Meer Idina Menzel songs

Idina Menzel - Let It Go / Laat Het Los