Gratis ProTab

Gratis Download Robin Schulz - Sugar - ProTab

Ontvang deze ProTab (pdf) direct per e-mail, waarna je hem kan downloaden, online bekijken en printen. ProTabs, zijn correcte songs in Tab en bladmuziek geschreven door afgestudeerde conservatorium gitaristen.

Title: Winter Of Love
SubTitle: for easy guitar
Artist: Ilse De Lange
Copyright: www.vicsgitaarschool.nl
Tabber: Vic van den Bosch
Tempo = 123


Legend
L - tied note
x - dead note
h - hammer on/pull off
b - bend
s - slide
~ - vibrato
g - ghost note
> - accentuated note
t - trill
M - palm mute
. - staccato
P - popping (bass)
S - slapping (bass)
+ - tapping
W - wide vibrato
< - fade in
w - whammy bar
= - tremolo picking
v - brush up
^ - brush down
V - pick stroke up
n - pick stroke down


E ||---------------------------|---------------------------||
B ||-0-----0-----0--0-----0----|-----0-----3--2--3--2------||
G ||o--------------------------|-----------------------2--o||
D ||o--------------------------|--------------------------o||
A ||---------------------------|---------------------------||
E ||---------------------------|---------------------------||


--------------0--2----------|-------|--------------0--2----------|
-----0--3--3--------0--3L---|--3----|-----0--3--3--------0--3L---|
----------------------------|-------|----------------------------|
----------------------------|-------|----------------------------|
----------------------------|-------|----------------------------|
----------------------------|-------|----------------------------|


-----------------------5L---|--5--2-----------------5L---|
--3-----3-------------------|-----------3-----0----------|
--------------------2-------|----------------------------|
-------------------
...... Helaas, de rest is alleen voor leden /  Members only please subscribe .......
Gitaar Tabs

Speel de Tab van Ilse De Lange - Winter Of Love

Meld je direct aan, pak je gitaar en speel binnen 15 sec mee - Tab van Ilse De Lange - Winter Of Love.
Reeds 65.000 gitaristen zijn je voorgegaan.

DIRECT AANMELDEN >> Ilse De Lange - Winter Of Love <<  

Beoordeel deze tab: Ilse De Lange - Winter Of Love


Comments: Ilse De Lange - Winter Of Love - tab

5

Plaats bericht voor Ilse De Lange - Winter Of Love

Via onderstaande formulier kan je een comment plaatsen bij de tab van Ilse De Lange met Winter Of Love.