• Streaming gitaar liedjes spelen
  • Leer gitaar spelen & gitaarlessen
  • 80.000 leden
Title: Winter Of Love
SubTitle: for easy guitar
Artist: Ilse De Lange
Copyright: www.vicsgitaarschool.nl
Tabber: Vic van den Bosch
Tempo = 123


Legend
L - tied note
x - dead note
h - hammer on/pull off
b - bend
s - slide
~ - vibrato
g - ghost note
> - accentuated note
t - trill
M - palm mute
. - staccato
P - popping (bass)
S - slapping (bass)
+ - tapping
W - wide vibrato
< - fade in
w - whammy bar
= - tremolo picking
v - brush up
^ - brush down
V - pick stroke up
n - pick stroke down


E ||---------------------------|---------------------------||
B ||-0-----0-----0--0-----0----|-----0-----3--2--3--2------||
G ||o--------------------------|-----------------------2--o||
D ||o--------------------------|--------------------------o||
A ||---------------------------|---------------------------||
E ||---------------------------|---------------------------||


--------------0--2----------|-------|--------------0--2----------|
-----0--3--3--------0--3L---|--3----|-----0--3--3--------0--3L---|
----------------------------|-------|----------------------------|
----------------------------|-------|----------------------------|
----------------------------|-------|----------------------------|
----------------------------|-------|----------------------------|


-----------------------5L---|--5--2-----------------5L---|
--3-----3-------------------|-----------3-----0----------|
--------------------2-------|----------------------------|
----------------------------|----------------------------|
----------------------------|----------------------------|
----------------------------|----------------------------|


--5--2-----------------5L---|--5--2-----------------5L---|
-----------3--------0-------|-----------3--------0-------|
----------------------------|----------------------------|
----------------------------|----------------------------|
----------------------------|----------------------------|
----------------------------|----------------------------|


--5--2----------------------|--------------0--2----------|-------|
-----------3----------------|-----0--3--3--------0--3L---|--3----|
----------------------------|----------------------------|-------|
----------------------------|----------------------------|-------|
----------------------------|----------------------------|-------|
----------------------------|----------------------------|-------|


--------------0--2----------|-----------------------5L---|
-----0--3--3--------0--3L---|--3-------------------------|
----------------------------|--------------------2-------|
----------------------------|----------------------------|
----------------------------|----------------------------|
----------------------------|----------------------------|


--5--2-----------------5L---|--5--2-----------0--0L------|
-----------3-----0----------|-----------3----------------|
----------------------------|----------------------------|
----------------------------|----
>> Registreer, speel & download <<
Meld nu aan en speel de rest van Ilse De Lange - Winter Of Love

>> Registreer, speel & download <<
------------------------|
----------------------------|----------------------------|
----------------------------|----------------------------|


--0-------------------------|-------|----------------------------|
--------------0--0--0--0----|-------|--------------0--0--0--0L---|
----------------------------|-------|----------------------------|
----------------------------|--4----|----------------------------|
-----------2----------------|-------|-----------2----------------|
----------------------------|-------|----------------------------|


----------------------------|----------------------------|
--0--2--3--2L-2L------------|--2-----------0--0--0--0L---|
----------------------------|----------------------------|
----------------------------|----------------------------|
----------------------------|----------------------------|
----------------------------|----------------------------|


----------------------------|----------------------------|
--0--------0L-0--0--0--0L---|--0-----------0-----0--0----|
----------------------------|----------------------------|
-----4--4-------------------|-----4--4-------------------|
----------------------------|----------------------------|
----------------------------|----------------------------|


----------------------------|----------------------------|
--0--2--3--2L-2L------------|--2-----------0--0--0--0L---|
----------------------------|----------------------------|
----------------------------|----------------------------|
----------------------------|----------------------------|
----------------------------|----------------------------|


----------------------------|----------------------------|
--0--------0L-0--0--0--0L---|--0-----------0--0--0--0L---|
----------------------------|----------------------------|
-----4--4-------------------|-----4--4-------------------|
----------------------------|----------------------------|
----------------------------|----------------------------|


----------------------------|----------------------------|-------|
--0-------------------------|-----------0L-0-------------|-------|
-----2--2--2L-2--2L-2--2L---|--2--2L-2-------------------|-------|
----------------------------|-----------------4--4L------|--4----|
----------------------------|----------------------------|-------|
----------------------------|----------------------------|-------|


--------------0-------------|-------||---------------------------|
-----------0-----3--0--0L---|--0----||-0-----0-----0--0-----0----|
----------------------------|-------||o--------------------------|
----------------------------|-------||o--------------------------|
----------------------------|-------||---------------------------|
----------------------------|-------||---------------------------|


---------------------------|||
-----0-----3--2--3--2------|||
-----------------------2--o|||
--------------------------o|||
---------------------------|||
---------------------------|||


More info