• Streaming gitaar liedjes spelen
  • Leer gitaar spelen & gitaarlessen
  • 80.000 leden
Nummer:  Obstacle 1
Artiest: Interpol
Album:   Turn on the Bright Lights
Tab:	 BasG [Kaham]
Tuning:  Standard EADGBe

LEADGITAAR!
Deze tab geeft de leadgitaar (voor zover je een lead en een rhythm kan onderscheiden in dit nummer) weer. Voor de tweede gitaarpartij verwijs ik je graag door naar mijn andere tab van dit nummer.



     W                   W                   W                 
E||-------------------|-------------------|-------------------|
B||-------------------|-------------------|-------------------|
G||-------------------|-------------------|-------------------|
D||-------------------|-------------------|-------------------|
A||-------------------|-------------------|-------------------|
E||-------------------|-------------------|-------------------|


  W                    E   E  Q     E   E  Q        E   E  Q     E   E  Q     
-------------------|---8---8--------8---8-------|---8---8--------8---8-------|
-------------------|--10--10-------10--10-------|--10--10-------10--10-------|
-------------------|----------------------------|----------------------------|
-------------------|----------------------------|----------------------------|
-------------------|----------------------------|----------------------------|
-------------------|----------------------------|----------------------------|


   E   E  Q     E   E  Q        E   E  Q     E   E  Q     
---8---8--------8---8-------|---8---8--------8---8-------|
--10--10-------10--10-------|--10--10-------10--10-------|
----------------------------|----------------------------|
----------------------------|----------------------------|
----------------------------|----------------------------|
----------------------------|----------------------------|


   E   E  Q     E   E  Q        E   E  Q     E   E  Q     
---8---8--------8---8-------|---8---8--------8---8-------|
--10--10-------10--10-------|--10--10-------10--10-------|
----------------------------|----------------------------|
----------------------------|----------------------------|
----------------------------|----------------------------|
----------------------------|----------------------------|


   E   E  Q     E   E  Q        E   E  Q     E   E  Q     
---8---8--------8---8-------|---8---8--------8---8-------|
--10--10-------10--10-------|--10--10-------10--10-------|
----------------------------|----------------------------|
----------------------------|----------------------------|
----------------------------|----------------------------|
----------------------------|----------------------------|


   E   E  Q     E   E  Q        E   E  Q     E   E  Q     
---8---8--------8---8-------|---8---8--------8---8-------|
--10--10-------10--10-------|--10--10-------10--10-------|
----------------------------|----------------------------|
----------------------------|----------------------------|
----------------------------|----------------------------|
----------------------------|----------------------------|


   E   E  Q     E   E  Q        E   E  Q     E   E  Q     
---8---8--------8---8-------|---8---8--------8---8-------|
--10--10-------10--10-------|--10--10-------10--10-------|
----------------------------|----------------------------|
----------------------------|----------------------------|
----------------------------|----------------------------|
----------------------------|----------------------------|


   E   E  Q     E   E  Q        E   E  Q     E   E  Q     
--12--12-------12--12-------|--12--12-------12--12-------|
--13--13-------13--13-------|--13--13-------13--13-------|
----------------------------|----------------------------|
----------------------------|----------------------------|
----------------------------|----------------------------|
----------------------------|----------------------------|


   E   E  Q     E   E  Q        E   E  Q     E   E  Q     
--12--12-------12--12-------|--12--12-------12--12-------|
--13--13-------13--13-------|--13--13-------13--13-------|
----------------------------|----------------------------|
----------------------------|----------------------------|
----------------------------|----------------------------|
----------------------------|----------------------------|


   E   E  Q     E   E  Q        E   E  Q     E   E  Q     
---8---8--------8---8-------|---8---8--------8---8-------|
--10--10-------10--10-------|--10--10-------10--10-------|
----------------------------|----------------------------|
----------------------------|----------------------------|
----------------------------|----------------------------|
----------------------------|----------------------------|


   E   E  Q     E   E  Q        E   E  Q     E   E  Q     
---8---8--------8---8-------|---8---8--------8---8-------|
--10--10-------10--10-------|--10--10-------10--10-------|
----------------------------|----------------------------|
----------------------------|----------------------------|
----------------------------|----------------------------|
----------------------------|----------------------------|


   E   E  Q     E   E  Q        E   E  Q     E   E  Q     
--12--12-------12--12-------|--12--12-------12--12-------|
--13--13-------13--13-------|--13--13-------13--13-------|
----------------------------|----------------------------|
----------------------------|----------------------------|
----------------------------|----------------------------|
----------------------------|----------------------------|


   E   E  Q     E   E  Q        E   E  Q     E   E  Q     
--12--12-------12--12-------|--12--12-------12--12-------|
--13--13-------13--13-------|--13--13-------13--13-------|
----------------------------|----------------------------|
----------------------------|----------------------------|
----------------------------|----------------------------|
----------------------------|----------------------------|


   E   E  Q     E   E  Q        E   E  Q     E   E  Q     
--12--12-------12--12-------|--12--12-------12--12-------|
--13--13-------13--13-------|--13--13-------13--13-------|
----------------------------|----------------------------|
----------------------------|----------------------------|
----------------------------|----------------------------|
----------------------------|----------------------------|


   E   E  Q     E   E  Q        E   E  Q     E   E  Q     
--12--12-------12--12-------|--12--12-------12--12-------|
--13--13-------13--13-------|--13--13-------13--13-------|
----------------------------|----------------------------|
----------------------------|----------------------------|
----------------------------|----------------------------|
----------------------------|----------------------------|


   E   E  E  E   E   E  E  E      E   E  E  E   E   E  E  E   
--12--12--------12--12--------|--12--12--------12--12--------|
--13--13--------13--13--------|--13--13--------13--13--------|
------------------------------|------------------------------|
------------------------------|------------------------------|
------------------------------|------------------------------|
------------------------------|------------------------------|


   E   E   E   E   E   E   E   E      E   E   E   E   E   E   E   E   
----------------------------------|----------------------------------|
----------------------------------|----------------------------------|
----------------------------------|----------------------------------|
--10--10--10--10--10--10--10--10--|--10--10--10--10--10--10--10--10--|
---8---8---8---8---8---8---8---8--|---8---8---8---8---7---7---7---7--|
----------------------------------|----------------------------------|


  E  E  E  E  E  E  E  E      E   E   E   E   E   E   E   E   
--------------------------|----------------------------------|
--------------------------|----------------------------------|
--------------------------|----------------------------------|
--7--7--7--7--7--7--7--7--|----------------------------------|
--0--0--0--0--0--0--0--0--|--10--10--10--10--10--10--10--10--|
--------------------------|---8---8---8---8---8---8---8---8--|


   E   E  E  E   E   E  E  E      E   E  E  E   E   E  E  E   
------------------------------|------------------------------|
------------------------------|------------------------------|
------------------------------|------------------------------|
--10--10--------10--10--------|--10--10--------10--10--------|
---8---8---------8---8--------|---8---8---------7---7--------|
------------------------------|------------------------------|


  E  E  E  E  E  E  E  E      E   E   E   E   E   E   E   E   
--------------------------|----------------------------------|
--------------------------|----------------------------------|
--------------------------|----------------------------------|
--7--7--7--7--7--7--7--7--|----------------------------------|
--0--0--0--0--0--0--0--0--|--10--10--10--10--10--10--10--10--|
--------------------------|---8---8---8---8---8---8---8---8--|


  W                   E  E  E  E  E  E  E  S S   
-------------------|----------------------------|
-------------------|----------------------------|
-------------------|--7--7--7--7--7--7--7--7-7S-|
-------------------|----------------------------|
-------------------|--5--5--5--5--5--5--5--5-5S-|
-------------------|----------------------------|


   E   E   E   E   E   E   E   S  S      E   E   E   E   E   E   E   E   
-------------------------------------|----------------------------------|
-------------------------------------|----------------------------------|
--10--10--10--10--10--10--10--10-10S-|--14--14--14--14--14--14--14--14--|
-------------------------------------|----------------------------------|
---8---8---8---8---8---8---8---8--8S-|--12--12--12--12--12--12--12--12--|
-------------------------------------|----------------------------------|


   E   E  Q     E   E  Q        E   E  Q     E   E  Q     
---8---8--------8---8-------|---8---8--------8---8-------|
--10--10-------10--10-------|--10--10-------10--10-------|
----------------------------|----------------------------|
----------------------------|----------------------------|
----------------------------|----------------------------|
----------------------------|----------------------------|


   E   E  Q     E   E  Q        E   E  Q     E   E  Q     
---8---8--------8---8-------|---8---8--------8---8-------|
--10--10-------10--10-------|--10--10-------10--10-------|
----------------------------|----------------------------|
----------------------------|----------------------------|
----------------------------|----------------------------|
----------------------------|----------------------------|


   E   E  Q     E   E  Q        E   E  Q     E   E  Q     
--12--12-------12--12-------|--12--12-------12--12-------|
--13--13-------13--13-------|--13--13-------13--13-------|
----------------------------|----------------------------|
----------------------------|----------------------------|
----------------------------|----------------------------|
----------------------------|----------------------------|


   E   E  Q     E   E  Q        E   E  Q     E   E  Q     
--12--12-------12--12-------|--12--12-------12--12-------|
--13--13-------13--13-------|--13--13-------13--13-------|
----------------------------|----------------------------|
----------------------------|----------------------------|
----------------------------|----------------------------|
----------------------------|----------------------------|


   E   E  Q     E   E  Q        E   E  Q     E   E  Q     
--12--12-------12--12-------|--12--12-------12--12-------|
--13--13-------13--13-------|--13--13-------13--13-------|
----------------------------|----------------------------|
----------------------------|----------------------------|
----------------------------|----------------------------|
----------------------------|----------------------------|


   E   E  Q     E   E  Q        E   E  Q     E   E  Q     
--12--12-------12--12-------|--12--12-------12--12-------|
--13--13-------13--13-------|--13--13-------13--13-------|
----------------------------|----------------------------|
----------------------------|----------------------------|
----------------------------|----------------------------|
----------------------------|----------------------------|


   E   E  Q     E   E  Q        E   E  Q     E   E  Q     
--12--12-------12--12-------|--12--12-------12--12-------|
--13--13-------13--13-------|--13--13-------13--13-------|
----------------------------|----------------------------|
----------------------------|----------------------------|
----------------------------|----------------------------|
----------------------------|----------------------------|


   E   E  Q     E   E  Q        E   E  Q     E   E  Q     
--12--12-------12--12-------|--12--12-------12--12-------|
--13--13-------13--13-------|--13--13-------13--13-------|
----------------------------|----------------------------|
----------------------------|----------------------------|
----------------------------|----------------------------|
----------------------------|----------------------------|


   E   E  E  
E   E   E  E  E      E   E  E  E   E   E  E  E   
--12--12--------12--12--------|--12--12--------12--12--------|
--13--13--------13--13--------|--13--13--------13--13--------|
------------------------------|------------------------------|
------------------------------|------------------------------|
------------------------------|------------------------------|
------------------------------|------------------------------|


     E   E   E   E   E   E   E   E      E   E   E   E   E   E   E   E   
|-----------------------------------|----------------------------------|
|-----------------------------------|----------------------------------|
|*----------------------------------|----------------------------------|
|*--10--10--10--10--10--10--10--10--|--10--10--10--10--10--10--10--10--|
|----8---8---8---8---8---8---8---8--|---8---8---8---8---7---7---7---7--|
|-----------------------------------|----------------------------------|


  E  E  E  E  E  E  E  E      E   E   E   E   E   E   E   E   
--------------------------|----------------------------------|
--------------------------|----------------------------------|
--------------------------|----------------------------------|
--7--7--7--7--7--7--7--7--|----------------------------------|
--0--0--0--0--0--0--0--0--|--10--10--10--10--10--10--10--10--|
--------------------------|---8---8---8---8---8---8---8---8--|


   E   E  E  E   E   E  E  E      E   E  E  E   E   E  E  E   
------------------------------|------------------------------|
------------------------------|------------------------------|
------------------------------|------------------------------|
--10--10--------10--10--------|--10--10--------10--10--------|
---8---8---------8---8--------|---8---8---------7---7--------|
------------------------------|------------------------------|


  E  E  E  E  E  E  E  E      E   E   E   E   E   E   E   E     
--------------------------|-----------------------------------||
--------------------------|-----------------------------------||
--------------------------|----------------------------------*||
--7--7--7--7--7--7--7--7--|----------------------------------*||
--0--0--0--0--0--0--0--0--|--10--10--10--10--10--10--10--10---||
--------------------------|---8---8---8---8---8---8---8---8---||


   E   E   E   E   E   E   E   E      E  E   E   Q     E  E   E   
----------------------------------|------8------12--------8------|
----------------------------------|--10-----10--------10-----10--|
----------------------------------|------------------------------|
----------------------------------|------------------------------|
--10--10--10--10--10--10--10--10--|------------------------------|
---8---8---8---8---8---8---8---8--|------------------------------|


   Q     E  E   E  E   E  E      E  E   E   Q     E  E   E   
--12--------8------8---------|------8------12--------8------|
--------10-----10-----10-----|--10-----10--------10-----10--|
-----------------------------|------------------------------|
-----------------------------|------------------------------|
-----------------------------|------------------------------|
-----------------------------|------------------------------|


   Q     E  E   E  E   E  E      E  E   E   Q     E  E   E   
--12--------8------8---------|------8------12--------8------|
--------10-----10-----10-----|--10-----10--------10-----10--|
-----------------------------|------------------------------|
-----------------------------|------------------------------|
-----------------------------|------------------------------|
-----------------------------|------------------------------|


   Q     E  E   E  E   E  E      E  E   E   Q     E  E   E   
--12--------8------8---------|------8------12--------8------|
--------10-----10-----10-----|--10-----10--------10-----10--|
-----------------------------|------------------------------|
-----------------------------|------------------------------|
-----------------------------|------------------------------|
-----------------------------|------------------------------|


   Q     E  E   E  E   E  E      E  E   E   Q     E  E   E   
--12--------8------8---------|------8------12--------8------|
--------10-----10-----10-----|--10-----10--------10-----10--|
-----------------------------|------------------------------|
-----------------------------|------------------------------|
-----------------------------|------------------------------|
-----------------------------|------------------------------|


   Q     E  E   E  E   E  E      E  E   E   Q     E  E   E   
--12--------8------8---------|------8------12--------8------|
--------10-----10-----10-----|--10-----10--------10-----10--|
-----------------------------|------------------------------|
-----------------------------|------------------------------|
-----------------------------|------------------------------|
-----------------------------|------------------------------|


   Q     E  E   E  E   E  E      E  E   E   Q     E  E   E   
--12--------8------8---------|------8------12--------8------|
--------10-----10-----10-----|--10-----10--------10-----10--|
-----------------------------|------------------------------|
-----------------------------|------------------------------|
-----------------------------|------------------------------|
-----------------------------|------------------------------|


   Q     E  E   E  E   E  E      E  E   E   Q     E  E   E   
--12--------8------8---------|------8------12--------8------|
--------10-----10-----10-----|--10-----10--------10-----10--|
-----------------------------|------------------------------|
-----------------------------|------------------------------|
-----------------------------|------------------------------|
-----------------------------|------------------------------|


   Q     E  E   E  E   E  E      E  E   E   Q     E  E   E   
--12--------8------8---------|------8------12--------8------|
--------10-----10-----10-----|--10-----10--------10-----10--|
-----------------------------|------------------------------|
-----------------------------|------------------------------|
-----------------------------|------------------------------|
-----------------------------|------------------------------|


   Q     E  E   E  E   E  E      E  E   E   Q     E  E   E   
--12--------8------8---------|------8------12--------8------|
--------10-----10-----10-----|--10-----10--------10-----10--|
-----------------------------|------------------------------|
-----------------------------|------------------------------|
-----------------------------|------------------------------|
-----------------------------|------------------------------|


   Q     E  E   E  E   E  E      E  E   E   Q     E  E   E   
--12--------8------8---------|------8------12--------8------|
--------10-----10-----10-----|--10-----10--------10-----10--|
-----------------------------|------------------------------|
-----------------------------|------------------------------|
-----------------------------|------------------------------|
-----------------------------|------------------------------|


   Q     E  E   E  E   E  E      E  E   E   Q     E  E   E   
--12--------8------8---------|------8------12--------8------|
--------10-----10-----10-----|--10-----10--------10-----10--|
-----------------------------|------------------------------|
-----------------------------|------------------------------|
-----------------------------|------------------------------|
-----------------------------|------------------------------|


   Q     E  E   E  E   E  E      E  E   E   Q     E  E   E   
--12--------8------8---------|------8------12--------8------|
--------10-----10-----10-----|--10-----10--------10-----10--|
-----------------------------|------------------------------|
-----------------------------|------------------------------|
-----------------------------|------------------------------|
-----------------------------|------------------------------|


   Q     E  E   E  E   E  E      E  E   E   Q     E  E   E   
--12--------8------8---------|------8------12--------8------|
--------10-----10-----10-----|--10-----10--------10-----10--|
-----------------------------|------------------------------|
-----------------------------|------------------------------|
-----------------------------|------------------------------|
-----------------------------|------------------------------|


   Q     E  E   E  E   E  E      E  E   E   Q     E  E   E   
--12--------8------8---------|------8------12--------8------|
--------10-----10-----10-----|--10-----10--------10-----10--|
-----------------------------|------------------------------|
-----------------------------|------------------------------|
-----------------------------|------------------------------|
-----------------------------|------------------------------|


   Q     E  E   E  E   E  E      E  E   E   Q     E  E   E   
--12--------8------8---------|------8------12--------8------|
--------10-----10-----10-----|--10-----10--------10-----10--|
-----------------------------|------------------------------|
-----------------------------|------------------------------|
-----------------------------|------------------------------|
-----------------------------|------------------------------|


   Q     E  E   E  E   E  E      E  E   E   Q     E  E   E   
--12--------8------8---------|------8------12--------8------|
--------10-----10-----10-----|--10-----10--------10-----10--|
-----------------------------|------------------------------|
-----------------------------|------------------------------|
-----------------------------|------------------------------|
-----------------------------|------------------------------|


   Q     E  E   E  E   E  E      E  E   E   Q     E  E   E   
--12--------8------8---------|------8------12--------8------|
--------10-----10-----10-----|--10-----10--------10-----10--|
-----------------------------|------------------------------|
-----------------------------|------------------------------|
-----------------------------|------------------------------|
-----------------------------|------------------------------|


   Q     E  E   E  E   E  E      E  E   E   Q     E  E   E   
--12--------8------8---------|------8------12--------8------|
--------10-----10-----10-----|--10-----10--------10-----10--|
-----------------------------|------------------------------|
-----------------------------|------------------------------|
-----------------------------|------------------------------|
-----------------------------|------------------------------|


   Q     E  E   E  E   E  E      E  E   E   Q     E  E   E   
--12--------8------8---------|------8------12--------8------|
--------10-----10-----10-----|--10-----10--------10-----10--|
-----------------------------|------------------------------|
-----------------------------|------------------------------|
-----------------------------|------------------------------|
-----------------------------|------------------------------|


   Q     E  E   E  E   E  E      E  E   E   Q     E  E   E   
--12--------8------8---------|------8------12--------8------|
--------10-----10-----10-----|--10-----10--------10-----10--|
-----------------------------|------------------------------|
-----------------------------|------------------------------|
-----------------------------|------------------------------|
-----------------------------|------------------------------|


   Q     E  E   E  E   E  E      E  E   E   Q     E  E   E   
--12--------8------8---------|------8------12--------8------|
--------10-----10-----10-----|--10-----10--------10-----10--|
-----------------------------|------------------------------|
-----------------------------|------------------------------|
-----------------------------|------------------------------|
-----------------------------|------------------------------|


   Q     E  E   E  E   E  E     Q    Q    Q    Q      
--12--------8------8---------|--L-------------------||
--------10-----10-----10-----|--L-------------------||
-----------------------------|----------------------||
-----------------------------|----------------------||
-----------------------------|----------------------||
-----------------------------|----------------------||




Duration Legend
---------------
W - whole
H - half
Q - quarter
E - 8th
S - 16th
T - 32nd
X - 64th
. - note dotted
|-n-|  - n-tuplets


Tablature Legend
----------------
L - tied note
x - dead note
g - grace note
(n) - ghost note
> - accentuded note
NH - natural harmonic
AH - artificial harmonic
TH - tapped harmonic
SH - semi harmonic
PH - pitch harmonic
h - hammer on
p - pull off
b - bend
br - bendRelease
pb - preBend
pbr - preBendRelease
brb - bendReleaseBend
\n/ - tremolo bar dip
\n - tremolo bar dive
-/n - tremolo bar Release up
/n\ - tremolo bar inverted dip
/n - tremolo bar return
-\n - tremolo bar Release down
S - shift slide
s - legato slide
/ -  slide into from below or out of upwards
\ -  slide into from above or out of downwards
~ - vibrato
W - wide vibrato
tr - trill
TP - tremolo picking
T - tapping
S - slap
P - pop
< - fade in
^ - brush up
v - brush down

More info