• Streaming gitaar liedjes spelen
  • Leer gitaar spelen & gitaarlessen
  • 80.000 leden
I'm Sensitive


Intro-type: 
---------- 
-----2-2-----2-2-----2-2-----2-2 
-----2-2-----2-2-----2-2-----2-2 
-------------------------------- 
-------------------------------- 
-2-2-----2-2-----1-1-----1-1---- 
-------------------------------- 

Verse-type: 
---------- 
-----2-2-----2-2-----2-2-----2-2-----2-2-----2-2-----2-2-----2-2 
-----2-2-----2-2-----2-2-----2-2-----2-2-----2-2-----2-2-----2-2 
---------------------------------------------------------------- 
---------------------------------------------------------------- 
-2-2-----2-2-----2-2-----2-2-----1-1-----1-1----1-1-----1-1----- 
---------------------------------------------------------------- 

Bridge-type: 
----------- 
-----0-0-----0-0-----2-2-----2-2-----0-0-----0-0-----2-2-----2-2 
-----0-0-----0-0-----2-2-----2-2-----0-0-----0-0-----2-2-----2-2 
---------------------------------------------------------------- 
---------------------------------------------------------------- 
---------------------------------------------------------------- 
-0-0-----0-0-----2-2-----2-2-----0-0-----0-0-----2-2-----2-2---- 

Chorus-type: 
----------- 
-----2-2-----2-2---------------------0-0-----0-0-----2-2-----2-2----
-2-2 
-----2-2-----2-2-----4-4-----4-4-----0-0-----0-0-----2-2-----2-2-----2-2 
---------------------4-4-----4-4---------------------------------------- 
------------------------------------------------------------------------ 
-2-2-----1-1-----------------------------------------------------2-2---- 
-----------------4-4-----4-4-----0-0-----0-0-----2-2-----2-2------------ 


-----2-2-----2-2-----2-2 
-----2-2-----2-2-----2-2 
------------------------ 
------------------------ 
-2-2-----1-1-----1-1---- 
------------------------ 



(Intro) 

Verse #1: 
-------- 
I was thinking that I might .... 

Bridge #1: 
--------- 
It doesn't talent to be mean.... 

Chorus #1: 
--------- 
So please be careful with me,... 
Verse #2: 
-------- 
You always tell me that it's .... 

Bridge #2: 
--------- 
Why's it gotta be so ..... 

(Chorus #1) 

Verse #3: 
-------- 
I was thinking that it might do .... 

Bridge #3: 
--------- 
That way what they believe will have .... 

(Chorus #1) 

Verse #4: 
-------- 
I have this theory that if we're told .... 

Bridge #4: 
--------- 
But maybe if we are surrounded in .... 

Chorus #2: 
--------- 
We are everyday angels.... 

More info