• Streaming gitaar liedjes spelen
  • Leer gitaar spelen & gitaarlessen
  • 80.000 leden
Dag Ster,grote ster voor wie twikkel jij voor wie geef jj je twikkelend licht? 

Dag ster, grote ster Als ik naar je kijk, krijg ik lichtjes in mijn ogen en  een lach op mijn gezicht 

Geef jij licht aan de wijzen?  Help jij ze door de nacht?              

Grote ster, ik zie je staan  Wijs jij ze hoe ze moeten gaan ?



De muziek;

Dag Ster, Grote Ster

       F                     Bb               C                        F              F
e----|-----------------------|----------------|------------------------|----------|----------------------|
B----|-----------------------|----------------|------------------------|----------|----------------------|
G----|2---2---0------0---2---|-0--------------|-------------0--2--3--2-|-2--------|-2---2---0------------|
D----|------------3----------|-----0---0---0--|-2--2--2--3-------------|----------|-------------3-2---1--|
A--3-|-----------------------|----------------|------------------------|---------3|----------------------|
E----|-----------------------|----------------|------------------------|----------|----------------------|

Dag Ster,grote ster voor wie twinkel jij voor wie geef jj je twinkelend licht? Dag ster, grote ster Als ik


  Bb                  A7                Dm         Gm      Bb/C     F    C                 F      
e-------------------|---------------------------|---------------------|------------------|--------------|
B-------------------|---------------------------|---------------------|-----------------
>> Registreer, speel & download <<
Meld nu aan en speel de rest van Kerstliedjes - Dag Ster, Grote Ster

>> Registreer, speel & download <<
-|--------------|
G--------3--2----0--|-2---0---------------------|-2----0--------------|-0---0---0-------0|-2------------|
D--0--3-------------|---------3--2--3--0---2--3-|----------3--2---3---|-------------3----|-----3--------|
A-------------------|---------------------------|---------------------|------------------|--------------|
E-------------------|---------------------------|---------------------|------------------|--------------|

naar je kijk, krijg ik lichtjes in mijn ogen en  een lach op mijn gezicht Geef jij licht aan de wijzen?

  
  Bb          Bb/C   C   F           F7   Bb                     Dm7          Gm7             Csus4   C
e---------------------|----------------|------------------------|------------|-------------------|------|
B---------------------|----------------|------------------------|------------|-------------------|------|
G--0---0---0-------0--|-2--------------|--3---3---3---3---2---0-|-2--------0-|-------------------|-0----|
D--------------3------|----------------|------------------------|------------|--3--3--3--3--2--3-|------|
A---------------------|----------------|------------------------|------------|-------------------|------|
E---------------------|----------------|------------------------|------------|-------------------|------|

 Help jij ze door de nacht?              Grote ster, ik zie je staan  Wijs jij ze hoe ze moeten gaan ?





Als er iemand is die het bladmuziek nodig heeft kan me mailen.

    kenworth@gitaartabs.nl

More info

Comments Kerstliedjes - Dag Ster, Grote Ster - tab

kenworth

Kenworth 2012-12-09

Het liedje was in notenschrift geschreven en aan gezien ik enkel noten kan lezen in de 1ste positie kan het best wat te hoog zijn.

Misschien dat je een capo gebruiken kan op fret 3 of zo.
Kijk en luister maar wat jij mooi vindt.

Maar als jij de juiste toon (misschien pos. 2 of 3) weet dan zie ik de tab wel verschijnen....


darm87

Darm87 2012-12-09

is hij niet wat te hoog?
hij klinkt heel anders dan als ik het liedje luister.