• Streaming gitaar liedjes spelen
  • Leer gitaar spelen & gitaarlessen
  • 80.000 leden
I'm dreaming of a white Christmas 
Just like the ones I used to know 
Where the treetops glisten, 
and children listen 
To hear sleigh bells in the snow 

I'm dreaming of a white Christmas 
With every Christmas card I write 
May your days be merry and bright 
And may all your Christmases be white 

I'm dreaming of a white Christmas 
With every Christmas card I write 
May your days be merry and bright 
And may all your Christmases be white

e--------------------------------------------------------------5~~-3------|
B--5~~--6-5-4-5-6~~--7-8~~--10-12-13-15--13-12-10-8~~-1-3-5-5-5-----1-1-1-|
G-------------------------------------------------------------------------|
D-------------------------------------------------------------------------|
A-------------------------------------------------------------------------|
E---------------------------------------
----------------------------------|

e 3~-1-0------------------------------------|
B ------6-5-3-1-3~~---5~~-6-5-4-5-6-~~-7-8~~|
G ------------------------------------------|
D ------------------------------------------|
A ------------------------------------------|
E ------------------------------------------|

e-------------------------------------5-3-3-8~~--------------5-3--------------------------||
B--10-12-13-15-13-12-10-8~~--1-3-5-5----------------1-3-5-5------0-1~~--------------------||
G-----------------------------------------------------------------------------------------||
D-----------------------------------------------------------------------------------------||
A-----------------------------------------------------------------------------------------||
E---------en dit herhaal je elk couplet---die ~~ moet vibrato voorstellen ;-)-------------||

More info

Comments Kerstliedjes - Dreaming Of A White Christmas - tab

Draaiorgel

Draaiorgel 2018-12-20

Kan dit niet een beetje simpeler, in welke toonsoort, G C en welke akkoorden? - ik wil helemaal geen solo spelen maar begeleiden!


darm87

Darm87 2011-12-04

het is nog best wel lastig om op de 15e fret te spelen. is daar misschien een oplossing voor?

Alvast bedankt


kenworth

Kenworth 2011-12-04

Ja gewoon oefenen en op eens zal je het lukken.
Deze tab is de meest makkelijke versie voor dit nr.

Suc7 met oefenen  ;-)


darm87

Darm87 2011-11-04

het lukt niet om het te spelen beetje uitleg


darm87

Darm87 2011-03-23

oh, deze vind ik helemaal leuk, ga ik stiekem oefenen zodat ik hem met kerst vlekkeloos speel.. gezellig bij de boom..


stephaniekraats

Stephaniekraats 2010-12-19

makkelijk weg te spelen ! erg leuk :D