• Streaming gitaar liedjes spelen
  • Leer gitaar spelen & gitaarlessen
  • 80.000 leden
Er is een kindeke geboren op aard word alleen op de hoge E-snaar gespeeld.
De tab speel je 3 keer. De tekst voor de tweede en derde keer staat eronder.

Veel succes (moet wel lukken toch!)


E	 -0-3-1-00-0-3-7-7-9-7---
B	--------------------------------
G	--------------------------------		 	Er is een kindeke geboren op aard 		
D	--------------------------------
A	--------------------------------
E	--------------------------------

E	 -0-3-1-00-0-3-7-7-9-7---
B	--------------------------------
G	--------------------------------			Er is een kindeke geboren op aard 
D	--------------------------------
A	--------------------------------
E	--------------------------------

E	 -5-9-5-3-7-3-1-3-5-7---
B	-------------------------------
G	------------
-------------------				't Kwam op de aarde voor ons allemaal
D	-------------------------------
A	-------------------------------
E	-------------------------------

E	 -5-9-5-3-7-3-1-3-1-0---
B	-------------------------------
G	-------------------------------				't Kwam op de aarde voor ons allemaal
D	-------------------------------
A	-------------------------------
E	-------------------------------



't Kwam op de aarde en 't had er geen huis 
't Kwam op de aarde en 't had er geen huis 
't Kwam op de aarde en 't droeg al zijn Kruis 
't Kwam op de aarde en 't droeg al zijn Kruis 

Er is een Kindeke geboren in 't strooi
Er is een Kindeke geboren in 't strooi
't Lag in een kribbe, bedekt met wat hooi 
't Lag in een kribbe, bedekt met wat hooi

More info

Comments Kerstliedjes - Er Is Een Kindeke Geboren Op Aard - tab

Sjaan1593

Sjaan1593 2012-01-03

Gitaar goed gestemd?? want bij mij klink die wel


darm87

Darm87 2011-11-30

sorry hoor maar ik vind hem niet klinken heel vals


Sjaan1593

Sjaan1593 2011-11-29

@ darm87 ik heb het getabt via mijn muziekboek, maar als je het beter vind klinken kun je dat gewoon spelen. En die 00 betekend dat je de snaar waar dat opstaat 2x open moet aanslaan


darm87

Darm87 2011-11-26

wat is 2 keer 00


darm87

Darm87 2011-11-16

Ik zou denken ipv de 3 een 4 en ipv een 1 een 2 aanslaan. Maar misschien heb ik het verkeerd, speel nog niet zo lang gitaar. Voor het gehoor klinkt het mijns inziens beter.


darm87

Darm87 2011-11-11

leuk