• Streaming gitaar liedjes spelen
  • Leer gitaar spelen & gitaarlessen
  • 80.000 leden
Hark the Herald Angels sing by Hopeforchris
   
You could play this one all year long it is a  good fingerpicking and alternate up/down picking practice :) 


      e|-------------------------------|
      B|-----------0-0---3-3-3-1-0---0-|
      G|---0-0---0-----2-----------2---|
      D|-0-----4-----------------------|
      A|-------------------------------|
      E|-------------------------------|

Hark! The Herald angels sing glory to the new born king

      e|-------------------------------|
      B|---------0-0---3---------------|
      G|--0-0---0----2---2-2-----------|
      D|-0----4--------------4-4-2-0---|
      A|-------------------------------|
      E|-------------------------------|

Peace on earth and mercy mild. God and sinners reconciled

      e|-------------------------------|
      B|-3-3-3---1-0-0---3-3-3--1-0-0--|
      G|-------0-------2------0------2-|
      D|-------------------------------|
      A|-------------------------------|
      E|-------------------------------|

Joyful all ye nations rise, join the triumph of the skies

      e|--0-0-0-------------------------|
      B|--------3-1-0-1---0-1-3------0--
|
      G|----------------2------0-0-2----|
      D|--------------------------------|
      A|--------------------------------|
      E|--------------------------------|

With th'angelic host proclaim, Christ is born in Bethlehem

      e|-0-0-0---------------------------|
      B|------3-1-0-1----0-1-3-----------|
      G|----------------2-----0-0-2-0----|
      D|---------------------------------|
      A|---------------------------------|
      E|---------------------------------|
Hark! The Herald Angels sing, Glory to the new born King.
  

Christ, by highest heavn adored, Christ the everlasting Lord.
Late in time behold Him come, offspring of the virgins womb.
Veil'd in flesh the God-head see. Hail the incarnate Deity.
Pleased as Man with man to dwell , Jesus our Emmanuel!
Hark the herald angels sing__Glory to the newborn king.
 
Mild He lays His glory by. Born that man no more may die.
Born to raise the sons of earth. Born to give them second birth.
Risen with healing in His wings, light and life to all He brings.
Hail the Son of Righteousness! Hail the heaven born Prince of Peace!
Hark the Herald Angels SING,,, Golry to the New Born King.

More info

Comments Kerstliedjes - Hark The Herald Angels Sing - tab

JanH

JanH 2013-12-24