• Streaming gitaar liedjes spelen
  • Leer gitaar spelen & gitaarlessen
  • 80.000 leden
Dashing through the snow
In a one horse open sleigh
O'er the fields we go
Laughing all the way
Bells on bob tails ring
Making spirits bright
What fun it is to laugh and sing
A sleighing song tonight

Oh, jingle bells, jingle bells
Jingle all the way
Oh, what fun it is to ride
In a one horse open sleigh
Jingle bells, jingle bells
Jingle all the way
Oh, what fun it is to ride
In a one horse open sleigh

A day or two ago
I thought I'd take a ride
And soon Miss Fanny Bright
Was seated by my side
The horse was lean and lank
Misfortune seemed his lot
We got into a drifted bank
And then we got upsot

Oh, jingle bells, jingle bells
Jingle all the way
Oh, what fun it is to ride
In a one horse open sleigh
Jingle bells, jingle bells
Jingle all the way
Oh, what fun it is to ride
In a one horse open sleigh yeah

Jingle bells, jingle bells
Jingle all the way
Oh, what fun it is to ride
In a one horse open sleigh
Jingle bells, jingle bells
Jingle all the way
Oh, what fun it is to ride
In a one horse open sleigh 

Nederlandse tekst;

We rijden met z'n twee
met paard en arrenslee
al over veld en hei
tezamen zij aan zij.
Langs witbesneeuwde grond
zo rijden wij maar rond
en hoor de bellen "ringtingting"
hoe ik mijn liedje zing.

Jingle bells, jingle bells, rij maar rustig mee.
Oh het is zo'n zaligheid te rijden in een slee, he. (2 maal)

of;

Heerlijk met z’n twee, in een open arrenslee,
mensen zien ons gaan, blijven even staan.
Stel je dat eens voor, de besneeuwde bossen door,
Langzaam, langzaam, niet te snel, op het ritme van de bel!

Jinglebells, jinglebells, hoor je overal
Jij en ik gaan samen in een slee langs berg en dal
he
Jinglebells, jinglebells, hoor je overal
Jij en ik gaan samen in een slee langs berg en dal

We rijden met z'n twee, met paard en arrenslee al over veld en hei, tezamen zij aan zij. Langs witbesneeuwde grond zo rijden wij maar rond en horen wi
j van "ringtingting", hoe ik mijn liedje zing. 

Jinglebells, jinglebells, hoor je overal
Jij en ik gaan samen in een slee langs berg en dal
he
Jinglebells, jinglebells, hoor je overal
Jij en ik gaan samen in een slee langs berg en dal
he

of;

in opa's oude schuur, daar stad een are slee
en als het winter sneeuw, gaan weer met hen mee
z' on rittje met de slee dat duurt toch veel te kort
wij kijken er naar uit als het weer winter word
hey, jingel bels jingle bels in de are slee
je hoort de belletjes van ver, en wij zingen mee
hey jingle bels jingle bels ..... 

voorlopig genoeg dacht ik zo :-)
Nu de muziek nog ;-)


e-------------------------------------------------------------------------------------0---------------------------|
B----0-------------0---------1-0-----3-3-1---0---0------------0---------1-0---3-3-3-3---3-1-----3-0-0-0-0-0-0-0-3-|
G------2-0-----------2-0---------2---------2-------2-0----------2-0---------2---------------2-0-------------------|
D--0-------0-0-0-0-------2-2-------3-----------0-------0-0-0-0------2-2-------------------------------------------|
A-----------------------------------------------------------------------------------------------------------------|
E-----------------------------------------------------------------------------------------------------------------|

e------------------------------------------------------------------------------------------------||
B------0-1-1-1-1-1-0-0-0-0-0-0-----0---3-0-0-0-0-0-0-0-3-----0-1-1--1-1-1-0-0-0-0-3-3-1----------||
G--0-2-------------------------2-2---2-------------------0-2----------------------------2-0------||
D------------------------------------------------------------------------------------------------||
A------------------------------------------------------------------------------------------------||
E-------------------------------------------------------- en dit herhaal je steeds --------------||

More info

Comments Kerstliedjes - Jingle Bells - tab

christy_Guitar

Christy_Guitar 2010-12-22

=D echt heel goede tab.
Dankje, ik kwam zelf niet uit het begin van de tab.