• Streaming gitaar liedjes spelen
  • Leer gitaar spelen & gitaarlessen
  • 80.000 leden
LET IT SNOW

VERSE
----3-3-1-0--------------------------------|
------------3-1----------3-1-3-1-0---------|
0-0-------------0----0-0-----------0-------|
-------------------------------------------|
-------------------------------------------|
-------------------------------------------|


----5-5-3-1-0-------7-5-3--3-1-0--0--------|
--------------3---------------------3-1----|
0-0----------------------------------------|
-------------------------------------------|
-------------------------------------------|
-------------------------------------------|
*repeat 
verse

CHORUS
------0-----3------------------------------|
0-1-3---3-0---3----0-3-1-1-0-------0-------|
-----------------------------2-0-2---------|
-------------------------------------------|
-------------------------------------------|
-------------------------------------------|


------0-----3------2-0-0-2---0-3-----------|
0-1-3---3-0---3------------3-0-------------|
-------------------------------------------|
-------------------------------------------|
-------------------------------------------|
-------------------------------------------|
*repeat verse

More info

Comments Kerstliedjes - Let It Snow V1 - tab

JanH

JanH 2013-12-24