• Streaming gitaar liedjes spelen
  • Leer gitaar spelen & gitaarlessen
  • 80.000 leden
Instrumentaal

voorbeeld kopieer en plak deze link;

http://soundclick.com/share.cfm?id=9999415

Deze uitvoering begint erg rustig en het 2e deel is wat steviger, maar je kan het invullen zoals je het zelf zou willen.

Veel speel plezier gewenst.


e-----------------------------------------------------------------------------------|
B-------0--0--0--1-0-1-0--------0-0-0-0---1-0-1-0-----------------------------------|
G--0--2-------------------0-0-2--------------------0-0-2--0-0-0-0---1-0-1--0-----0--|
D-----------------------------------------------------------------------------2-----|
A-----------------------------------------------------------------------------------|
E-----------------------------------------------------------------------------------|

e ------------------------|
B -------------0----------|
G -1--3-3-3-3----3-1-0----|
D ------------------------|

e----------------0---1-0--------0---------------------------0-0-0-0------------------------------|
B----0--1--3-3-3---------3---1----3-1--0---3-1-0-----0--2-------------1-0-1--0-------------------|
G--2---------------------------------------------2-------------------------------2-0-2-0---------|
D------------------------------------------------------------------------------------------------|
A------------------------------------------------------------------------------------------------|
E------------------------------------------------  Dit is de rustige versie  --------------------|

                            Nu kan je iets harder gaan spelen.

e------------------------------------------------------------------------------|
B---------10--10-10--11-10-11-10-----------10-10-10-10---11-10-11-10-----------|
G--10--12-------------------------10-10-12---------------------------10-10-12--|
D------------------------------------------------------------------------------|
A------------------------------------------------------------------------------|
E------------------------------------------------------------------------------|

e ------------------------|
B ------------------------|
G -10-10-10-10--11-10-11--|
D ------------------------|
A ------------------------|
E ----
--------------------|

e----------------------------------10----------------10---11-----------10---|
B--10------10---11---13-13-13-13-------13-11-10---12----------13-13-13------|
G------12-------------------------------------------------------------------|
D---------------------------------------------------------------------------|
A---------------------------------------------------------------------------|
E---------------------------------------------------------------------------|

e -11-10----------10-----------|
B -------13---11-----13-11-10--|
G -----------------------------|
D -----------------------------|
A -----------------------------|
E -----------------------------|

e--------------------------10-10-10-10------------------------------------------||
B--13-11-10------10---12----------------11-10-11---10---------------------------||
G-----------12------------------------------------------12-10-12-10-------------||
D-------------------------------------------------------------------------------||
A-------------------------------------------------------------------------------||
E-------------------------------------------------------------------------------||

            En zo kan je eindeloos door gaan met effecten, nog hoger of juist lagere tonen, enz enz.

Songtekst: 

Josh Groban - Little Drummer Boy

Come, they told me, pa rum pa pum pum
A newborn King to see, pa rum pa pum pum
Our finest gifts we bring, pa rum pa pum pum
To lay before the King, pa rum pa pum pum
Rum pa pum pum, rum pa pum pum
So to honor Him, pa rum pa pum pum
When we come

Little baby, pa rum pa pum pum
I am a poor boy too, pa rum pa pum pum
I have no gift to bring, pa rum pa pum pum
That's fit to give our King, pa rum pa pum pum
Rum pa pum pum, rum pa pum pum
Shall I play for You, pa rum pa pum pum
On my drum
On my drum

I play my drum for Him
So to honor Him

Mary nodded, pa rum pa pum pum
The ox and lamb kept time, pa rum pa pum pum
I played my drum for Him, pa rum pa pum pum
I played my best for Him, pa rum pa pum pum
Rum pa pum pum, rum pa pum pum
Then He smiled at me, pa rum pa pum pum
Me and my drum
When we come

Me and my drum

More info

Comments Kerstliedjes - Little Drummer Boy - tab

darm87

Darm87 2012-12-24

waarom staat er geen tekst bij????