• Streaming gitaar liedjes spelen
  • Leer gitaar spelen & gitaarlessen
  • 80.000 leden
Hallo,

Hier is mijn eerste tab: Stille Nacht!

Veel Plezier en alvast een fijne kerst!

e ------------------------------------------------------------|
B ----------------------3-3-0-1-1--------------1-0------------|
G -0-2-0------0-2-0----------------0-------2-2-----2-0-2-0----|
D -------2~--------2~---------------------------------------2-|
A ------------------------------------------------------------|
E ------------------------------------------------
------------|


e -----------------------1-------0------------------------|
B -----1-0-----------3-3---3-0-1--------1-----------------|
G -2-2----2-0-2-0-------------------------0---0-----------|
D -----------------2------------------------2---3-0-------|
A ---------------------------------------------------3----|
E --------------------------------------------------------|

Als je vragen, tips of opmerkingen hebt, mail dat dan naar tomvanooijen1@gmail.com

More info