• Streaming gitaar liedjes spelen
  • Leer gitaar spelen & gitaarlessen
  • 80.000 leden
Altijd is kort jakje ziek op alleen de E snaar.    

E----0-0-7-7-9-9-7-5-5-5-5-4-4-2-2-0-----   
B ---------------------------------------
G----------------------------------------
D----------------------------------------    
A----------------------------------------  
E----------------------------------------        

E--------7-7-5-5-4-4-2-------------------                       
B----------------------------------------
G----------------------------------------
D----------------------------------------
A----------------------------------------
E----------------------------------------

E-------7-7-5-5-4-4-2
B----------------------------------------
G----------------------------------------
D----------------
------------------------
A----------------------------------------
E----------------------------------------

E------0-0-7-7-9-9-7-5-5-5-5-4-4-2-2-0---
B ---------------------------------------
G----------------------------------------
D----------------------------------------
A----------------------------------------          
E----------------------------------------  

Altijd is Kortjakje ziek                                                 
midden in de week maar 's zondags niet.
's Zondags gaat zij naar de kerk
met een boek vol zilverwerk.

Altijd is Kortjakje ziek
midden in de week maar 's zondags niet.                                                                                                             

More info

Comments Kinderliedjes - Altijd Is Kortjakje - tab

Kokky

Kokky 2013-12-07

Fijn voor beginners


zanemahmoud21

Zanemahmoud21 2013-04-20

Te makkelijk!!! je leert hem al in 2 minuten ofzo :)


darm87

Darm87 2011-08-22

lekker makkelijk!