• Streaming gitaar liedjes spelen
  • Leer gitaar spelen & gitaarlessen
  • 80.000 leden
Artist: Nickelback
Song: Rockstar
Album: All The Right Reasons
Track: 11

Tuning: Drop C  (C G C F A D from low to high)

Palm Muted:  *
Let Ring:    ~
Slide Up:    \
Slide Down:  /


Intro/Verse 1:
 clean


Guitar 1&2

D-------------------------------------------------------------------------------|
A-------------------------------------------------------------------------------|
F----------------------7--7--7-7-7--7-7-----------------------------------------|
C---7--7--7-7-7--7-7---7--7--7-7-7--7-7---5--5--5-5-5--5-5---7--7--7-7-7--7-7---|
G---7--7--7-7-7--7-7---5--5--5-5-5--5-5---5--5--5-5-5--5-5---7--7--7-7-7--7-7---|
C---7--7--7-7-7--7-7----------------------5--5--5-5-5--5-5---7--7--7-7-7--7-7---|

At the ending:

D----------------------------------------------|
A----------------------------------------------|
F-------------------------------------7~-------|
C------10--10--10--10-10-10--10-10----7~-------|
G------10--10--10--10-10-10--10-10----5~-------|
C------10--10--10--10-10-10--10-10-------------|

Chorus:
 Light Distortion


Guitar 1

D--------------------------------------------------------------------|
A--------------------------------------------------------------------|
F---------------------------7-7-7-7---10-10-10-10--------------------|
C---7-7-7-7---10-10-10-10---7-7-7-7---10-10-10-10---5-5-5-5----------|
G---7-7-7-7---10-10-10-10---5-5-5-5---8—-8--8--8----5-5-5-5----------|
C---7-7-7-7---10-10-10-10---------------------------5-5-5-5----------|


Guitar 2

D--------------------------------------------------------------------|
A--------------------------------------------------------------------|
F---------------------------7-7-7-7---10-10-10-10---12-12-12-12------|
C---7-7-7-7---10-10-10-10---7-7-7-7---10-10-10-10---12-12-12-12------|
G---7-7-7-7---10-10-10-10---5-5-5-5---8—-8--8--8----10-10-10-10------|
C---7-7-7-7---10-10-10-10--------------------------------------------|

Ending Chorus:

D--------------------|  2x
A--------------------|
F---------7~---------|
C---10~---7~---7~----|
G---10~---5~---7~----|
C---10~--------7~----|

Verse 2:
 Clean


Guitar 1&2

D-------------------------------------------------------------------------------|
A-------------------------------------------------------------------------------|
F----------------------7--7--7-7-7--7-7-----------------------------------------|
C---7--7--7-7-7--7-7---7--7--7-7-7--7-7---5--5--5-5-5--5-5---7--7--7-7-7--7-7---|
G---7--7--7-7-7--7-7---5--5--5-5-5--5-5---5--5--5-5-5--5-5---7--7--7-7-7--7-7---|
C---7--7--7-7-7--7-7----------------------5--5--5-5-5--5-5---7--7--7-7-7--7-7---|

At the ending:

D----------------------------------------------|
A----------------------------------------------|
F-------------------------------------7~-------|
C------10--10--10--10-10-10--10-10----7~-------|
G------10--10--10--10-10-10--10-10----5~-------|
C------10-
-10--10--10-10-10--10-10-------------|


Chorus:
 Light Distortion


Guitar 1

D--------------------------------------------------------------------|
A--------------------------------------------------------------------|
F---------------------------7-7-7-7---10-10-10-10--------------------|
C---7-7-7-7---10-10-10-10---7-7-7-7---10-10-10-10---5-5-5-5----------|
G---7-7-7-7---10-10-10-10---5-5-5-5---8—-8--8--8----5-5-5-5----------|
C---7-7-7-7---10-10-10-10---------------------------5-5-5-5----------|


Guitar 2

D--------------------------------------------------------------------|
A--------------------------------------------------------------------|
F---------------------------7-7-7-7---10-10-10-10---12-12-12-12------|
C---7-7-7-7---10-10-10-10---7-7-7-7---10-10-10-10---12-12-12-12------|
G---7-7-7-7---10-10-10-10---5-5-5-5---8—-8--8--8----10-10-10-10------|
C---7-7-7-7---10-10-10-10--------------------------------------------|


Ending Chorus:

D--------------------|  1x
A--------------------|
F---------7~---------|
C---10~---7~---7~----|
G---10~---5~---7~----|
C---10~--------7~----|

Bridge:

„I wanna sing those Songs...“
D--------------------------------------------------------|
A--------------------------------------------------------|
F--------------------------------------------------------|
C----10-10-10-10-10---5-5-5-5-5---10-10-10-10-10~---5~---|
G----10-10-10-10-10---5-5-5-5-5---10-10-10-10-10~---5~---|
C----10-10-10-10-10---5-5-5-5-5---10-10-10-10-10~---5~---|


D-------------------------------------------------------------------------------|
A-------------------------------------------------------------------------------|
F----------------------7--7--7-7-7--7-7-----------------------------------------|
C---7--7--7-7-7--7-7---7--7--7-7-7--7-7---5--5--5-5-5--5-5---7--7--7-7-7--7-7---|
G---7--7--7-7-7--7-7---5--5--5-5-5--5-5---5--5--5-5-5--5-5---7--7--7-7-7--7-7---|
C---7--7--7-7-7--7-7----------------------5--5--5-5-5--5-5---7--7--7-7-7--7-7---|

Ending:
 Light Distortion


Guitar 1

D--------------------------------------------------------------------|
A--------------------------------------------------------------------|
F---------------------------7-7-7-7---10-10-10-10--------------------|
C---7-7-7-7---10-10-10-10---7-7-7-7---10-10-10-10---5-5-5-5----------|
G---7-7-7-7---10-10-10-10---5-5-5-5---8—-8--8--8----5-5-5-5----------|
C---7-7-7-7---10-10-10-10---------------------------5-5-5-5----------|


Guitar 2

D--------------------------------------------------------------------|
A--------------------------------------------------------------------|
F---------------------------7-7-7-7---10-10-10-10---12-12-12-12------|
C---7-7-7-7---10-10-10-10---7-7-7-7---10-10-10-10---12-12-12-12------|
G---7-7-7-7---10-10-10-10---5-5-5-5---8—-8--8--8----10-10-10-10------|
C---7-7-7-7---10-10-10-10--------------------------------------------|

More info

Comments Nickelback - Rockstar - tab

kenworth

Kenworth 2012-01-12

Zou je de tekst willen toevoegen om de tab geheel compleet te krijgen?

Toppie


Demiiej1220

Demiiej1220 2010-06-14

het klinkt best cool en vaag tegelijk

ik kan em wel spelen maar weet de akkoorden ook niet echt

 


emmskie43

Emmskie43 2009-11-22

wat zijn die akkoorde dan

 


Wendyy!

Wendyy! 2008-12-16

Heeft iemand hier ook de akoorden van?
Ik heb ze wel maar weet niet hoe ik ze
aan moet slaan>. Kan iemand me helpen? Tong