• Streaming gitaar liedjes spelen
  • Leer gitaar spelen & gitaarlessen
  • 80.000 leden
e----0---------------0------0--------------0---------0---------------3-0-----0------
b--3---3-1---------1------3---3-1--------1---3-----3---3-1---------1-----1-3--------
g----------2-0-2-0----------------2-0-2-0-------------------2-0-2-0-----------------



Zo wordt deze ook wel gespeeld:
Capo 7th fret

  (h) Hammer On  (p) Pull Off

E|-------0-------------------------0-----------0-----------------0-----------|
B|---3-------3---1---------1---------------3-------3---1-------------3---3---|
G|-------------------0h2-------2-------2-------------------0h
>> Registreer, speel & download <<
Meld nu aan en speel de rest van Passenger - Let Her Go Intro

>> Registreer, speel & download <<
2-----------2---|
D|---------------------------------------------------------------2---0-------|
A|---------------------------------------------------------------------------|
E|---------------------------------------------------------------------------|



E|---0------------------------------3p0---------|
B|-------3---1--------1-------1-----------0h3---|
G|---------------0h2------2---------------------|
D|----------------------------------2-----------|
A|----------------------------------------------|
E|----------------------------------------3-----|

More info

Comments Passenger - Let Her Go Intro - tab

leontje2002

Leontje2002 2014-01-06

doeemdnoedn


leontje2002

Leontje2002 2014-01-06

nee kletspraat nee vette tab


tantesidonia

Tantesidonia 2013-07-01

Hallo. Ik heb zelf gitaar les. Maar ik wouw nog wel wat erbij leren. Toen wouw ik voor de grap even kijken hoe '' let her go '' de tab eruit zag hier. Maar ik heb een hele andere als jullie allemaal.


JanH

JanH 2013-05-07

zo wordt deze ook wel gespeeld..

Capo 7th fret

  (h) Hammer On  (p) Pull Off

E|-------0-------------------------0-----------0-----------------0-----------|
B|---3-------3---1---------1---------------3-------3---1-------------3---3---|
G|-------------------0h2-------2-------2-------------------0h2-----------2---|
D|---------------------------------------------------------------2---0-------|
A|---------------------------------------------------------------------------|
E|---------------------------------------------------------------------------|



E|---0------------------------------3p0---------|
B|-------3---1--------1-------1-----------0h3---|
G|---------------0h2------2---------------------|
D|----------------------------------2-----------|
A|----------------------------------------------|
E|----------------------------------------3-----|