• Streaming gitaar liedjes spelen
  • Leer gitaar spelen & gitaarlessen
  • 80.000 leden
e-----------------------------------------------------------|
B-----------------------------------------------------------|
G-----------------------------------------------------------|
D-0--0-0--0-0--0-0-0-0-0--0-0--0-0--0-0-0-0-0--0-0--0-0--0-0|
A-----------------------------------------------------------|
E-----------------------------------------------------------|

e-----------------------------------------------------------|
B-----------------------------------------------------------|
G-----------------------0-----------------------------------|
D-----0--0--0-2-3--3--3---2--2--0-----0---------------------|
A-0-3-----------------------------3-3-----------------------|
E-----------------------------------------------------------|

e-----------------------------------------------------------|
B-----------------------------------------------------------|
G-----------------------0-----------------------------------|
D-----0--0--0-2-3--3--3---2--2--0---0-----------------------|
A-0-3-----------------------------3-------------------------|
E-----------------------------------------------------------|

e-----------------------------------------------------------|
B-----------------------------------------------------------|
G---------------0--0--0-2-3--3--2-0-2-----------------------|
D-----0--0--0-3-----------------------0---------------------|
A-0-3-------------------------------------------------------|
E-----------------------------------------------------------|

e-----------------------------------------------------------|
B-----------------------------------------------------------|
G-----------------------------------------------------------|
D-0-2-3--3--5--7-0--0-3-2-0---0-----------------------------|
A---------------------------3-------------------------------|
E-----------------------------------------------------------|

More info

Comments Pirates Of The Caribbean - He's A Pirate(begin) - tab

darm87

Darm87 2011-04-26

waar is de rest van pirates of the carribean

want dit stuk heb ik al

 


DJCrowdedBeatsJr.

DJCrowdedBeatsJr. 2010-10-29

Wilde dit liedje eerder leren. Nu heb ik eindelijk een goede site om nog wat leuke liedjes te leren.kan geen noten lezen daarom. Grtz frends, DJ CrowdedBeats Jr. P.S. CB rules


jeroenR

JeroenR 2010-07-14

www.youtube.com en dan sungha jung hij is super goed KIJKEN!!!!!!!!!!!!!!!!!!!!!!!!!!!!!!!!!!!!!!!!!!!!!!!


coolchik

Coolchik 2010-05-17

ik speel nou al een jaar gitaar en ik wil deze zo graag leren wil egt vooruit gaan xjes coolchik


kaatjedraakje

Kaatjedraakje 2010-04-28

striep kun je me de officiele erbij zetten?


momo

Momo 2010-02-28

@gekje.

 

zit er verder geen slagje meer bij?

ik ben nog niet zo oud en speel nog niet lang gitaar wil graag dit nummer leren en mijn leeraar helpt mij wel maar wil alvast vooruit spelen, als ik al deze akkoorden achter elkaar speel heb k dan dit lied?:)

 

alvast bedankt!

 

groetjes


stierp2000

Stierp2000 2010-02-28

Ik heb de officiėle versie, maar daar is het begin heel anders?? Hoe kan dit?


benn..

Benn.. 2010-01-03

klinkt goed


JanH

JanH 2009-08-20



theman25

Theman25 2009-08-04

E|--------------|--------------|--------------|---|
B|--------------|--------------|--------------|-7-| let ring
G|--------------|--------------|--------------|-7-|
D|--------------|--------------|--------------|---|
A|-5-55-55-5555-|-5-55-55-5555-|-5-55-55-5555-|-5-|
E|--------------|--------------|--------------|---|

Main Riff (2x) (0.10-0.37)
E|---------|---------|---------|---------|
B|---------|---5-6-6-|-6-8-5-5-|---------|
G|---5-7-7-|-7-------|---------|--7-5-7--|
D|-7-------|---------|---------|---------|
A|---------|---------|---------|---------|
E|---------|---------|---------|---------|

E|---------|---------|---------|---------|
B|---------|---5-6-6-|-6-8-5-5-|---------|
G|---5-7-7-|-7-------|---------|--7-5-7--|
D|-7-------|---------|---------|---------|
A|---------|---------|---------|---------|
E|---------|---------|---------|---------|

E|---------|---------|---5-6-6-|-5-3-5---|
B|---------|---5-8-8-|-8-------|-------3-|
G|---5-7-7-|-7-------|---------|---------|
D|-7-------|---------|---------|---------|
A|---------|---------|---------|---------|
E|---------|---------|---------|---------|

E|---------|----5----|---------|---------|
B|-----6-6-|--7------|---6-5-5-|--6---5--|
G|-5-7-----|------7--|-8-------|----7----|
D|---------|---------|---------|---------|
A|---------|---------|---------|---------|
E|---------|---------|---------|---------|

Interlude (0.37-0.43)
E|------------|-5-------|-6-------|--------|
B|------5-6-8-|---6-3---|---6-3---|--------|
G|--7-7-------|-------2-|-------3-|--2-3-2-|
D|------------|---------|---------|--------|
A|------------|---------|---------|--------|
E|------------|---------|---------|--------|

(0.43-0.50)
E|-5-5-5-6-5-|-3-3-3-3-5--|-5-5-5-6-5-|---------|
B|-----------|------------|-----------|-6-6-5-3-|
G|-----------|------------|-----------|---------|
D|-----------|------------|-----------|---------|
A|-----------|------------|-----------|---------|
E|-----------|------------|-----------|---------|

Solo (0.50-1.34)
E|-------|---5---|-------|---5---|---------|--------|--------|--------|
B|---5-6-|-8---8-|-6-5-6-|-8---8-|----8-10-|-10-8---|--------|--------|
G|-7-----|-------|-------|-------|-10------|------9-|-10-9-7-|-9----7-|
D|-------|-------|-------|-------|---------|--------|--------|---10---|
A|-------|-------|-------|-------|---------|--------|--------|--------|
E|-------|-------|-------|-------|---------|--------|--------|--------|

E|-------|-------|-----5-|-------|---------|----5-6-|--------|--------|
B|---5-6-|-5-6-8-|-6-8---|-8-6---|----5-6--|--8-----|---8-6--|-8-5-3--|
G|-7-----|-------|-------|-----7-|--7------|--------|-7------|--------|
D|-------|-------|-------|-------|---------|--------|--------|--------|
A|-------|-------|-------|-------|---------|--------|--------|--------|
E|-------|-------|-------|-------|---------|--------|--------|--------|

E|-----5-6-5-5-5-5-3-|-3-----------|
B|-5-----------------|---6-5-6-5-3-|
G|---5---------------|-------------|
D|-------------------|-------------|
A|-------------------|-------------|
E|-------------------|-------------|

E|-----5-6-5-5-8-5-3-|-3-----------|
B|-------------------|---6-5-6-5-3-|
G|-------------------|-------------|
D|-------------------|-------------|
A|-------------------|-------------|
E|-------------------|-------------|

E|-------5-------6-------5-5-8-5-3-|-3-----------|
B|-3-5-6---3-5-6---3-5-6-----------|---6-5-6-5-3-|
G|---------------------------------|-------------|
D|---------------------------------|-------------|
A|---------------------------------|-------------|
E|---------------------------------|-------------| 2x


dit is hem helemaal ik speel hem zelf ook zo en het klinkt heel goed


gitaarmaster

Gitaarmaster 2009-07-24

leuk om te leeren Kus


gekje

Gekje 2009-03-25


rick

Rick 2009-01-01

de tab klinkt wel als je je fantasie erbij gebruikt maar dan vind ik die andere versie tog beterderTong


marco473

Marco473 2008-11-24

kan ik dit liedje ook eindelijk spelen. best makkelijk en mooi. alleen klinkt hij wat raar vergleken met het echte liedje


anneliesb

Anneliesb 2008-11-06

ja, ik wil de rest ook wel weten.
Knipoog


daangitaar

Daangitaar 2008-10-26

Deze tab is echt goed alleen ik zou de rest ook wel willen weten. Kan je die maken/regelen alvast bedankt. Knipoog


Mitch rules

Mitch rules 2008-10-21

Die van Meets Rock is indd erg dope, helaas heeft ie daar geen Tabs voor Droevig


iirriizz5

Iirriizz5 2008-09-20

het klopt wel maar klinkt niet echy mooi met vervorming aan Tong . kijk es op youtube pirates of the caribbean meets rockLachen. zo speel ik het Lachen.


gitariste rinske

Gitariste rinske 2008-08-14

Kun je voor mij de akkoorden de bij zetten?
groetjes,


gitaarsnaar

Gitaarsnaar 2008-08-04

Tuurlijk kan dat ;-)


Marianne-Gitaar-Mens

Marianne-Gitaar-Mens 2008-07-31

Heej Kan je dit liedje ook met een gewoone klassieke gitaar spelen ? Ik weet het niet
Ik heb er namelijk zo een !! Beschaamd

Groetjez My :Lachebek


bram kamps

Bram kamps 2008-07-06

als hij niet klopt of je weet de rest zeg het dan even Knipoog