• Streaming gitaar liedjes spelen
  • Leer gitaar spelen & gitaarlessen
  • 80.000 leden
 Ĺ = bend to

All guitars in Drop D tuning (D A D G B E).

0:00 - 0:28 : play twice
 Really simple...
g ----------------------------------------------------------------
t ----------------------------------------------------------------
r ----------------------------------------------------------------
1 3-333-333-33-333-3-333-333-33-333-3-333-333-33-333-3-333-333-33-
& 3-333-333-33-333-3-333-333-33-333-3-333-333-33-333-3-333-333-33-
2 3-333-333-33-333-3-333-333-33-333-3-333-333-33-333-3-333-333-33-

0:29 - 1:11 : play three times

g ------------------------------------------------------------
t 15------------10------------11------------6--------8--------
r ------------------------------------------------------------
. ------------------------------------------------------------
# ------------------------------------------------------------
1 ------------------------------------------------------------
/
/play this the second and third times
g ------------------------------------------------------------
t ------------------------------------------------------------
r ------------------------------------------------------------
. 0-000-00-00-10-0-000-00-00-10-0-000-00-00-10-0-000-00-00-10-
# 0-000-00-00-10-0-000-00-00-10-0-000-00-00-10-0-000-00-00-10-
2 0-000-00-00-10-0-000-00-00-10-0-000-00-00-10-0-000-00-00-10-

1:12 - 1:19 : play once
     hold bend********          ****************
g --------13--------------------13--------------------------------
t 14Ĺ15---------15Ĺ14---14Ĺ15--------15Ĺ14---14Ĺ15-14Ĺ15Ĺ14-14--10
r ----------------------------------------------------------------
. ----------------------------------------------------------------
# ----------------------------------------------------------------
1 ----------------------------------------------------------------
/
/
g ------------------------------------------------------------
t ------------------------------------------------------------
r ------------------------------------------------------------
. 0-000-00-00-10-0-000-00-00-10-0-000-00-00-10-0-000-00-00-10-
# 0-000-00-00-10-0-000-00-00-10-0-000-00-00-10-0-000-00-00-10-
2 0-000-00-00-10-0-000-00-00-10-0-000-00-00-10-0-000-00-00-10-

1:20 - 1:47 : play twice

g ----------------------------------------------------------------
t ----------------------------------------------------------------
r ----------------------------------------------------------------
1 0-000-00-00-0-10-0-000-000-00-0-10-8-888-88-88-88-5-555-55-55-55
& 0-000-00-00-0-10-0-000-000-00-0-10-8-888-88-88-88-5-555-55-55-55
2 0-000-00-00-0-10-0-000-000-00-0-10-8-888-88-88-88-5-555-55-55-55

1:48 - 2:23 : play twice

g ----------------------------------------------------------------
t ----------------------------------------------------------------
r ----------------------------------------------------------------
1 10-0--------------10-0---------------8--------------5-----------
& 10-0--------------10-0---------------8--------------5-----------
2 10-0--------------10-0---------------8--------------5-----------

2:24 - 2:45 : play twice

g ----------------------------------------------------------------
t ----------------------------------------------------------------
r ----------------------------------------------------------------
1 0-000-00-00-0-10-0-000-000-00-0-10-8-888-88-88-88-5-555-55-55-55
& 0-000-00-00-0-10-0-000-000-00-0-10-8-888-88-88-88-5-555-55-55-55
2 0-000-00-00-0-10-0-000-000-00-0-10-8-888-88-88-88-5-555-55-55-55

2:46 - 2:59 : play once

g -----------------------------------------
t 
-----------------------------------------
r -----------------------------------------
1 10-0--------------10-0--------------10-0-
& 10-0--------------10-0--------------10-0-
2 10-0--------------10-0--------------10-0-

3:00 - 3:27 : play twice

g ------------------------------------------------
t 3-----------------------------------------------
r -------------2------------3-------------------0-
1 ---------------------------------------3--------
& ------------------------------------------------
2 ------------------------------------------------

3:28 - 4:11 : play thrice

g -----------------------------------------------
t -----------------------------------------------
r 0--------------0--------------1----------------
1 ---------------------------------------------3-
& -----------------------------------------------
2 -----------------------------------------------
4:12 - 4:40 : play eight times
 I am not sure this is a guitar...
                  hold bend*****
g ---------------------------------
t ---------------------------------
r 5--5-5---5--5-5Ĺ6--6--6-6--6-6Ĺ5-
. ---------------------------------
# ---------------------------------
1 ---------------------------------
/
/
g ---------------------------------
t ---------------------------------
r ---------------------------------
. ---------------------------------
# 3--3-3---3--3-3----3--3-3--3-3---
2 ---------------------------------

4:41 - 4:47 :play once

     hold bend********          ****************
g --------13--------------------13--------------------------------
t 14Ĺ15---------15Ĺ14---14Ĺ15--------15Ĺ14---14Ĺ15-14Ĺ15Ĺ14-14--10
r ----------------------------------------------------------------
. ----------------------------------------------------------------
# ----------------------------------------------------------------
1 ----------------------------------------------------------------
/
/
g ------------------------------------------------------------
t ------------------------------------------------------------
r ------------------------------------------------------------
. 0-000-00-00-10-0-000-00-00-10-0-000-00-00-10-0-000-00-00-10-
# 0-000-00-00-10-0-000-00-00-10-0-000-00-00-10-0-000-00-00-10-
2 0-000-00-00-10-0-000-00-00-10-0-000-00-00-10-0-000-00-00-10-

4:48 - 5:15 : play twice

g ----------------------------------------------------------------
t ----------------------------------------------------------------
r ----------------------------------------------------------------
1 0-000-00-00-0-10-0-000-000-00-0-10-8-888-88-88-88-5-555-55-55-55
& 0-000-00-00-0-10-0-000-000-00-0-10-8-888-88-88-88-5-555-55-55-55
2 0-000-00-00-0-10-0-000-000-00-0-10-8-888-88-88-88-5-555-55-55-55

5:16 - 5:55 : play twice
 slight variations
g -------------------------------------------------
t -------------------------------------------------
r -------------------------------------------------
1 10-0--------10-0---------8-----------5---------3-
& 10-0--------10-0---------8-----------5---------3-
2 10-0--------10-0---------8-----------5---------3-
5:56 - 6:39 : play thrice

g ----------------------------------------------------------------
t ----------------------------------------------------------------
r ----------------------------------------------------------------
1 3-333-333-33-333-3-333-333-33-333-3-333-333-33-333-3-333-333-33-
& 3-333-333-33-333-3-333-333-33-333-3-333-333-33-333-3-333-333-33-
2 3-333-333-33-333-3-333-333-33-333-3-333-333-33-333-3-333-333-33-

6:40 : play once

g --
t --
r --
1 3-
& 3-
2 3-

More info