• Streaming gitaar liedjes spelen
  • Leer gitaar spelen & gitaarlessen
  • 80.000 leden
--- intro ---
G - D - F(maj7) - C
G - D - F(maj7) - C

--- verse ---
G - D - F(maj7) - C
I gave you a hard time, I told you the news
G - D - F(maj7) - C
There's no I'm sorry's, cause there ain't no excuse
G - D - F(maj7) - C
The things I've been doing, the things that I say
G - D - F(maj7) - C
The road to ruin, between you and me

--- solo ---
e----------------------------------------------------
B-12p10\8----8/10-8---------------8-8h10-8-----------
G----------9--------7/9-7-----7/9--------------------
D----------------------------------------------------
A----------------------------------------------------
E----------------------------------------------------

e----------------------------------------------------
B-12p10\8-10---8------------------------------------
G-------------9------7-7/9\7-------------------------
D----------------------------------------------------
A----------------------------------------------------
E----------------------------------------------------

e-------12----10----14b15---------------------3------
B-----8----------12-----------12p10\8-10----8-3------
G-7/9-------------------------------------9---0------
D---------------------------------------------0------
A---------------------------------------------2------
E---------------------------------------------3------


--- verse ---
G - D - F(maj7) - C
My reasons for cheating, I don't know what to say
G - D - F(maj7) - C
maybe it's nature, havin' it's way
G - D - F(maj7) - C
You know that I love you, but that's easy to say
G - D - F(maj7) - C
You'd make me proud of you if you would stay

--- bridge ---
Am - Em - G - D
I promised you sunshine, I promised you, you'd be all mine
Am - Em - G - D
instead of the good times, a killer came and took your heart away

--- chorus ---
Am - Em - G - D
I gave you hard times, baby
Am - Em - G - D
I told you truth and lies

--- chorus ---
Am - Em - G - D
I gave you hard times, baby
Am - Em - G - D
I told you truth and lies

--- riff ---
e----------------3-----------------------------------
B----------------3-----------------------------------
G-----0-----0----0-----------------------------------
D---0-----0------0-----------------------------------
A-3-----3-----3b-2-----------------------------------
E----------------3-----------------------------------

--- verse ---
G - D - F(maj7) - C
I was silly believin' my lies could last
G - D - F(maj7) - C
'cause sooner or later the rumour would spread
G - D - F(maj7) - C
I often wonder how the things would be
G - D - F(maj7) - C
If you hadn't found out the truth about that girl and me

--- bridge ---
Am - Em - G - D
Can't promise you sunshine, can't promise you, you'll be all mine
Am - Em - G - D
I'll try to be honest, unlike the first time it won't slip my
 mind

--- chorus ---
Am - Em - G - D
I gave you hard times, baby
Am - Em - G - D
I told you truth and lies

--- chorus ---
Am - Em - G - D
I gave you hard times, baby
Am - Em - G - D
I told you truth and lies

--- solo ---
e----------------------------------------------------
B-----8---8-8-8h10b12-12r10p8-10---8---8h10p8--------
G-7/9---9------------------------9-------------------
D----------------------------------------------------
A----------------------------------------------------
E----------------------------------------------------

e---------------------------------------------------------
B-----8---8--10---15b17---15-13-12p10\8-10---8------------
G-7/9---9-------9--------------------------9---9-7/9-7-0--
D---------------------------------------------------------
A---------------------------------------------------------
E---------------------------------------------------------

e----------------------------------------------------
B----------------------------------------------------
G-7/9\7-h9p7-----------------------------------------
D-----------------5-7-7/9\7-5-7/9-5b-----------------
A-------------5/7---------------------7-5------------
E----------------------------------------------------

e------------------------------------7b8--7-5----------0--
B-----------8/10\8-10/12\10------8------------8--------1--
G-------7-9--------------------9---9------------9-7-4b-2--
D--9---------------------------------------------------2--
A----10------------------------------------------------0--
E---------------------------------------------------------


--- bridge ---
Am - Em - G - D
I promised you sunshine, I promised you, you'd be all mine
Am - Em - G - D
instead of the good times, a killer came and took your heart away

--- chorus ---
Am - Em - G - D
I gave you hard times, baby
Am - Em - G - D
I told you truth and lies

--- chorus ---
Am - Em - G - D
I gave you hard times, baby
Am - Em - G - D
I told you truth and lies

--- chorus ---
Am - Em - G - D
I gave you hard times
Am - Em - G - D
I told you truth and lies

--- chorus ---
Am - Em - G - D
I gave you hard times, baby
Am - Em - G - D
I told you truth and lies

--- riff ---
e----------------3-----------------------------------
B----------------3-----------------------------------
G-----0-----0----0-----------------------------------
D---0-----0------0-----------------------------------
A-3-----3-----3b-2-----------------------------------
E----------------3-----------------------------------

--- verse ---
G - D - F(maj7) - C
I look out the window, I watch the street kids grow
G - D - F(maj7) - C
Life was so easy when I was that old
G - D - F(maj7) - C
There were no lies and no things to be told
G - D - F(maj7) - C
Just lullabies and time to grow old

More info

Comments The Scabs - Hard Times - tab

dejoeri

Dejoeri 2010-08-09

zou er mij iemand het ritme kunnen geven aub ??


Meer The Scabs songs

The Scabs - Hard Times