• Streaming gitaar liedjes spelen
  • Leer gitaar spelen & gitaarlessen
  • 80.000 leden
                              Lang zal ze leven                                 


Music and words by Trad.
Tabbed by BasG [Kaham] using Guitar Pro 5.



     C                                                                       
          ^                       ^                       ^                  
     Q    E  E  Q    Q       Q    E  E  Q    Q       Q    E  E  E  E  E  E   
E||-------0---------------|--0----0--0--0---------|--3----3--3--5--3--1--0--|
B||--1----1--1--1---------|-------1----------1----|--1----1-----------------|
G||-------0----------0----|-------0----------0----|--0----0-----------------|
D||-------2----------2----|-------2----------2----|--2----2-----------------|
A||--3----3-----3----3----|--3----3-----3----3----|--3----3--------3-----3--|
E||-----------------------|-----------------------|
-------------------------|


  G              C  F     C              D5            G    C          
  ^              ^                       ^                             
  Q    Q    Q    E  E     Q    Q    Q    E  E     Q    Q    H          
-----------------3--1--|--0----1----3----5--1--|--0------------------||
--3----3----3----1--1--|--1--------------3-----|-------3----1--------||
--0----0----0----0--2--|--0--------------2-----|-------0----0--------||
--0----0----0----2--3--|-------0---------0-----|-------0----2--------||
--2----2----2----3-----|--3--------------------|-------2----3--------||
--3----3----3----------|-----------------------|-------3-------------||




Duration Legend
---------------
W - Hele Noot
H - Halve Noot
Q - Kwart Noot
E - Achtste Noot


Tablature Legend
----------------
^ Rasgueado Omhoog.

More info

Comments Traditioneel - Lang Zal Ze Leven - tab

darm87

Darm87 2012-01-16

klinkt super ga hem meteen laten horen aan mijn band hoe vet ie klinkt