Gratis ProTab

Gratis Download Robin Schulz - Sugar - ProTab

Ontvang deze ProTab (pdf) direct per e-mail, waarna je hem kan downloaden, online bekijken en printen. ProTabs, zijn correcte songs in Tab en bladmuziek geschreven door afgestudeerde conservatorium gitaristen.

Blackbox revelation
Never alone always together
by: Arne Heremans

Intro/Verse:
      E                                      D
e-----0----0----0----0----0--0--0--0-------------------------------|
b-----5---/8---\7----5----3--5--3--0----------7------7--7----------|
g---------------------------------------7-----7------7--7----7-----| x4
d--------------------------------------(7)-------------------------|
a------------------------------------5-----------------------------|
E-0~--------------------------------------------------------------|

Verse(Singing starts):
      E                                      D
e-----0----0----0----0----0--0--0--0-------------------------------|
b-----5---/8---\7----5----3--5--3--0----------7------7--7----------|
g---------------------------------------7-----7------7--7----7-----| x4
d---------------------------------------7--------------------------|
a------------------------------------5-----------------------------|
E-0~--------------------------------------------------------------|

Bridge:
   B                    A
e-------7~-----------------------5~---------------------------------------|
b-------7~-----------------------5~---------------------------------------|
g-------8~-----------------------6~---------------------------------------|
d-------9~----9---7--------------7~------7b8r7----5---7b8r7---------------|
a-------9~-----------10----7-----7~---------------------------------------|
E-7~-----------------------------5~----------------------
...... Helaas, de rest is alleen voor leden /  Members only please subscribe .......
Gitaar Tabs

Speel de BassTab van Blackbox Revelation - Never Alone Always Together

Meld je direct aan, pak je gitaar en speel binnen 15 sec mee - BassTab van Blackbox Revelation - Never Alone Always Together.
Reeds 65.000 gitaristen zijn je voorgegaan.

DIRECT AANMELDEN >> Blackbox Revelation - Never Alone Always Together <<  

Beoordeel deze tab: Blackbox Revelation - Never Alone Always Together


Comments: Blackbox Revelation - Never Alone Always Together - bass-tab

5

Plaats bericht voor Blackbox Revelation - Never Alone Always Together

Via onderstaande formulier kan je een comment plaatsen bij de bass-tab van Blackbox Revelation met Never Alone Always Together.