[General Riff]

e|--------------|--------------|--------------|--------------|
B|--------------|--------------|--------------|--------------|
G|------7-------|--------7-----|-------7------|-------7------|
D|--------------|--------------|--------------|--------------|
A|-5-x-x---5----|-5-x-x---5----|-5-x-x---5----|-5-x-x---5----| 
E|-----------5-0|-----------5-0|-----------5-0|-----------5-0|

e|--------------|--------------|--------------|--------------|
B|--------------|--------------|--------------|--------------|
G|------4-------|--------4-----|-------4------|-------4------|
D|--------------|--------------|--------------|--------------|
A|-2-x-x---2-0--|-2-x-x---2-0--|-2-x-x---2-0--|-2-x-x---2-0--| 
E|-------------0|-------------0|-------------0|-------------0|


[Intro]

D Bm


[Verse 1]

...... Helaas, de rest is alleen voor leden /  Members only please subscribe .......
Gitaar Tabs

Speel de Chord van Adele - Send My Love (to Your New Lover)

Meld je direct aan, pak je gitaar en speel binnen 15 sec mee - Chord van Adele - Send My Love (to Your New Lover).
Reeds 65.000 gitaristen zijn je voorgegaan.

DIRECT AANMELDEN >> Adele - Send My Love (to Your New Lover) <<  

Beoordeel deze tab: Adele - Send My Love (to Your New Lover)


Comments: Adele - Send My Love (to Your New Lover) - chords

5

Plaats bericht voor Adele - Send My Love (to Your New Lover)

Via onderstaande formulier kan je een comment plaatsen bij de chords van Adele met Send My Love (to Your New Lover).