Streaming Bladmuziek ProTabs
Riff1
  Am             C         F
e-------3------------3-----------3---5-3-----
B---1------------0h1---------0h1---1-----1---
G-2---2--------------------2-----------------
D--------------------------------------------
A--------------------------------------------
E--------------------------------------------

[Intro]
Am   C   F   F     (&Riff1)
Am   C   F   F     (&Riff1)

Bass verse riff
G----------------------------------
D----------------------------------
A-0-2-3--3-5-7-------/8-88-88-88-8-
E--------------1-3-5---------------


Am           C
   So many times I've cried
     F
When dark clouds block the sunlight 
                       Am (strum)
And it's raining in my heart
      C                  F      Fadd11+    F
I'll keep my head_ up__ high 

Am           C
   So little time to try 
   F
To find out, about the feeling 
              Am (strum)
That's deep inside_ of you 
    C            
...... Helaas, de rest is alleen voor leden /  Members only please subscribe .......
Gitaar Tabs

Speel de Chord van Anouk - In The Sand

Meld je direct aan, pak je gitaar en speel binnen 15 sec mee - Chord van Anouk - In The Sand.
Reeds 65.000 gitaristen zijn je voorgegaan.

DIRECT AANMELDEN  

Beoordeel deze tab: Anouk - In The Sand


Comments: Anouk - In The Sand - chords

5

Plaats bericht voor Anouk - In The Sand

Via onderstaande formulier kan je een comment plaatsen bij de chords van Anouk met In The Sand.