Streaming Bladmuziek ProTabs

Correcte Tabs - ProTABS

Live meespelen icm video
Wekelijks nieuwe Top 40 songs
Geschreven door gitaardocenten

Vanaf € 5,95 per maand!
Info ProTabs
Streaming Bladmuziek ProTabs

Online Gitaarles

Voor beginners & gevorderden
Lessen incl. begeleidingsmateriaal
Persoonlijke feedback

Vanaf € 9,95 per maand!
Info Online Gitaarles
Intro and Riff:
    G(5)                      D/F#
e |------------------------------------------------------|
B |-------3------------3------------3------------3-------|
G |-----0---0--------0---0--------2---2--------2---2-----|
D |---0-------0----0-------0----0-------0----0-------0---|
A |------------------------------------------------------|
E |-3------------3------------2------------2-------------|

     Cadd9                     D/F#
e |-------------------------------------------------------|
B |--------3------------3------------3------------3-------|
G |------0---0--------0---0--------2---2--------2---2-----|
D |----2-------2----2-------2----0-------0----0-------0---|
A |--3------------3---------------------------------------|
E |----------------------------2------------2-------------|

(intro)
|G(5)  D/F#  |Cadd9  D/F#  |
|G(5)  D/F#  |Cadd9  D/F#  |

G(5)
 If Roses are meant to be red
D/F#
 And violets to be blue
Cadd9
 Why isn’t my heart
D/F#
 Meant for y
...... Helaas, de rest is alleen voor leden /  Members only please subscribe .......
Gitaar Tabs

Speel de Chord van Anouk - Lost

Meld je direct aan, pak je gitaar en speel binnen 15 sec mee - Chord van Anouk - Lost.
Reeds 65.000 gitaristen zijn je voorgegaan.

DIRECT AANMELDEN  

Beoordeel deze tab: Anouk - Lost


Comments: Anouk - Lost - chords

5
FrankPleiter

FrankPleiter 2011-05-24

Gewoon ipv G(5) de G spelen en ipv D/F# de D, is wat minder mooi, maar werkt prima.


elin-kiss

Elin-kiss 2011-01-19

heb je deze ook alleen zonder g(5) en D/F#?

dan is ie misschien minder moeilijk!

 

 


jesszo

Jesszo 2010-10-11

loveit Lachen



Plaats bericht voor Anouk - Lost

Via onderstaande formulier kan je een comment plaatsen bij de chords van Anouk met Lost.