Intro and Riff:
    G(5)                      D/F#
e |------------------------------------------------------|
B |-------3------------3------------3------------3-------|
G |-----0---0--------0---0--------2---2--------2---2-----|
D |---0-------0----0-------0----0-------0----0-------0---|
A |------------------------------------------------------|
E |-3------------3------------2------------2-------------|

     Cadd9                     D/F#
e |-------------------------------------------------------|
B |--------3------------3------------3------------3-------|
G |------0---0--------0---0--------2---2--------2---2-----|
D |----2-------2----2-------2----0-
De rest van dit nummer alleen voor Gitaartabs leden! Maak gratis Gitaartabs account aan . 
Gitaar Tabs

Speel de Chord ♪ Anouk - Lost

Meld je aan en speel binnen 15 sec mee met Chord ♫ Anouk - Lost.
Reeds 65.000 gitaristen zijn je voorgegaan.

Gratis Aanmelden Gitaartabs - Basis

Beoordeel deze Gitaartab: Anouk - Lost

Comments Anouk - Lost - chords

FrankPleiter

FrankPleiter 2011-05-24

Gewoon ipv G(5) de G spelen en ipv D/F# de D, is wat minder mooi, maar werkt prima.


elin-kiss

Elin-kiss 2011-01-19

heb je deze ook alleen zonder g(5) en D/F#?

dan is ie misschien minder moeilijk!

 

 


jesszo

Jesszo 2010-10-11

loveit Lachen


Plaats opmerkingen e.o. suggestie voor Anouk - Lost