Dsus2
e|-------0---|
B|-3---3---3-|
G|---2-------|
D|-----------|

   Dsus2        Asus4         G
e|-------0----|--------0----|-------0---|--0-----0-----|
B|-----3---3--|------3---3--|-----3---3-|----3-----3---|
G|---2--------|----2--------|---2-------|2-----2-----2-|
D|-0----------|-------------|-----------|--------------|
A|------------|-0-----------|-----------|--------------|
G|------------|-------------|-3---------|--------------|

Dsus2			(4x)
Dsus2	Asus4	G	(2x)

Dsus2      A
...... Helaas, de rest is alleen voor leden /  Members only please subscribe .......
Gitaar Tabs

Speel de Chord van Anouk - Michel

Meld je direct aan, pak je gitaar en speel binnen 15 sec mee - Chord van Anouk - Michel.
Reeds 65.000 gitaristen zijn je voorgegaan.

DIRECT AANMELDEN >> Anouk - Michel <<  

Beoordeel deze tab: Anouk - Michel


Comments: Anouk - Michel - chords

5

Plaats bericht voor Anouk - Michel

Via onderstaande formulier kan je een comment plaatsen bij de chords van Anouk met Michel.