Anouk  My friend
=================

  What's   friend      tell
e-0--------0--------3-------
B-1--------3-----3--3---3---
G-0--------2----2---0---2---
D-2--------0---0----0---0---
A-3-----------------2-------
E-------------------3---2---
  C        Dsus2    G   D/F#

  why
e-0--------3--2-----3-------
B-1-----------3-----3---3---
G-0-----------2-----0---2---
D-2-----------0-----0---0---
A-3-----------------2-------
E-------------------3---2---
  C        Dsus2    G   D/F#

C                    D        G          D/F#    C
What's the matter my friend    Can't you tell me why__
D                G       D/F#     C
 You say there's nothing on your_ mind___
D      G        D/F# C
Please stop telling  lies   cause

Em      G         C
As long as you're lying 
Em      G         A
I can't ease your mind___ 
Em       D  G                D/F# Em
No sense in hiding  It's all_ in your eyes 
        D/F# G
No need to__ hide___
    
De rest van dit nummer alleen voor Gitaartabs leden! Maak gratis Gitaartabs account aan . 
Gitaar Tabs

Speel de Chord ♪ Anouk - My Friend

Meld je aan en speel binnen 15 sec mee met Chord ♫ Anouk - My Friend.
Reeds 65.000 gitaristen zijn je voorgegaan.

Gratis Aanmelden Gitaartabs - Basis

Beoordeel deze Gitaartab: Anouk - My Friend

Comments Anouk - My Friend - chords

Plaats opmerkingen e.o. suggestie voor Anouk - My Friend