Riff1
e---------------------------------
B---------------------------------
G-----------------7-7-7-7-5-5-5-5-
D-2-2-2-2-2-2-2-2-7-7-7-7-5-5-5-5-
A-2-2-2-2-2-2-2-2-5-5-5-5-3-3-3-3-
E-0-0-0-0-0-0-0-0-----------------

Solo1
e-----------------
B-----------------
G-----------------
D------7h9-9p7----
A-7h10---------10-
E-----------------

Riff2
e-------------------------
B-------------------------
G---------7-7---7--5--5---
D-2-2-2-2-7-7---7--5--5---
A-2-2-2-2-5-5---5--3--3---
E-0-0-0-0-----------------

Em       D5  C5
Em       D5  C5
Em       D5  C5
Em    D5   C5

[Verse]

Bass Riff3 (verse)
G------------------
D-------------5----
A---------------5--
E-0--0h3-0---------

I'm walking in the park 
And I'm talking to the dark 
But there ain't nobody listening  no  Solo2

Solo2
e-12~~~~~~--
B-15b17~~---

My heart has turned to stone 
When I found myself alone 
Now all I do is whisper  to the dark 

Em       D5  C5
Yeah (yeah)
Em    D5   C5
Yeah (yeah)

[Verse2]

Riff4
e--------------------------
B--------------------------
G--------------------------
D----------------------7---
A-7--7--------7--7--7--7---
E-0--0--------0--0--0------

There's only so much you can take 
You've gotta to give yourself a break 
But I don't think you're listening   no no no no
If you're gonna take it all so hard 
You gonna tear your
De rest van dit nummer alleen voor Gitaartabs leden! Maak gratis Gitaartabs account aan . 
Gitaar Tabs

Speel de Chord ♪ Anouk - The Dark

Meld je aan en speel binnen 15 sec mee met Chord ♫ Anouk - The Dark.
Reeds 65.000 gitaristen zijn je voorgegaan.

Gratis Aanmelden Gitaartabs - Basis

Beoordeel deze Gitaartab: Anouk - The Dark

Comments Anouk - The Dark - chords

Linn018

Linn018 2008-02-13

Heeft iemand dit al eens gespeeld,,??
Na mijn weten klopt die niet helemaal..

Help me


Plaats opmerkingen e.o. suggestie voor Anouk - The Dark