Streaming Bladmuziek ProTabs
Riff1
e---------------------------------
B---------------------------------
G----------------------------2----
D-----2-----2--2-----1-----0------
A---4------4--4----4-----2--------
E-2------2---2---2----------------
  F#7(no3)       F#6     D/B

Riff1  (fuzz)
Riff1

F#7(no3)       F#6     D/B

F#7(no3)
I_ don't exist for you 
    F#6           D/B
You made that crystal clear 
F#7(no3) 
Your sweetest thing for 7 years_
F#6         D/B
 What did I do to deserve this 

F#7(no3)
Don't think you own my life_ 
F#6        D/B
 I've still got my pride
F#7(no3)
Tryin' so hard to forget 
F#6      D/B
I cannot help but hear your voice 

Riff2a
e----------------
B----------------
G----------------
D-4-4-4-4-4-4-4--
A-4-4-4-4-4-4-4--
E-0-2-2-0-2-0-2--

[Pre-chorus]
F#5 (Riff2a)                       F#5
This is love, just trust me baby   Other girls mean nothing to me 
D5           B5
Why don't you keep your big mouth shut 
F#5                                F#5
And all the bridges that y
...... Helaas, de rest is alleen voor leden /  Members only please subscribe .......
Gitaar Tabs

Speel de Chord van Anouk - U Being U

Meld je direct aan, pak je gitaar en speel binnen 15 sec mee - Chord van Anouk - U Being U.
Reeds 65.000 gitaristen zijn je voorgegaan.

DIRECT AANMELDEN  

Beoordeel deze tab: Anouk - U Being U


Comments: Anouk - U Being U - chords

5

Plaats bericht voor Anouk - U Being U

Via onderstaande formulier kan je een comment plaatsen bij de chords van Anouk met U Being U.