Capo on 6th


[Intro: Kyla + Wizkid]

Baby I like your style

Tab for woman's voice:

e|---------------------------------------------------------------------------|
B|-----------/5-0-----0------------------------------------------------------|
G|-----------------------0--0h2-2s--s-0h2-2s--s------------------------------|
D|---------------------2-----------------------------------------------------|
A|---------------------------------------------------------------------------|
E|-------0-------------------------------------------------------------------|


[Verse 1: Drake]

Em
Grips on your waist
                    G
Front way, back way

You know that I don't play
Am
Streets not safe
                    Am
But I never run away

Even when I'm away

Em                         G
OT, OT, there's never much love when we go OT
      Am
I pray to make it back in one piece

I pray, I pray


[Hook: Drake]

           Em
That's why I need a one dance
           G
Got a Hennessy in my hand
         Am
One more time 'fore I go
              Am
Higher powers taking a hold on me

Em
I need a one dance
           G
Got a Hennessy in my hand
         Am
One more time 'fore I go
              Am
Higher powers taking a hold on me


[Bridge: Kyla + Wizkid]

Baby I like your style

e|---------------------------------------------------------------------------|
B|-----------/5-0-----0------------------------------------------------------|
G|-----------------------0--0h2-2s--s-0h2-2s--s------------------------------|
D|---------------------2-----------------------------------------------------|
A|---------------------------------------------------------------------------|
E|-------0--------------
De rest van dit nummer alleen voor Gitaartabs leden! Maak gratis Gitaartabs account aan . 
Gitaar Tabs

Speel de Chord ♪ Drake - One Dance

Meld je aan en speel binnen 15 sec mee met Chord ♫ Drake - One Dance.
Reeds 65.000 gitaristen zijn je voorgegaan.

Gratis Aanmelden Gitaartabs - Basis

Beoordeel deze Gitaartab: Drake - One Dance

Comments Drake - One Dance - chords

Plaats opmerkingen e.o. suggestie voor Drake - One Dance

Meer Drake songs

Drake - One Dance