Streaming Bladmuziek ProTabs

Correcte Tabs - ProTABS

Live meespelen icm video
Wekelijks nieuwe Top 40 songs
Geschreven door gitaardocenten

Vanaf € 5,95 per maand!
Info ProTabs
Streaming Bladmuziek ProTabs

Online Gitaarles

Voor beginners & gevorderden
Lessen incl. begeleidingsmateriaal
Persoonlijke feedback

Vanaf € 9,95 per maand!
Info Online Gitaarles
Ik wil je

Artiest:	Guus Meeuwis
Album:	
Capo:	3
Tuning:	E-A-D-G-B-E
uitgezocht door:	A. Rutten

--------------------------------------------------------------------

Capo 3     

Em = E Mineur = -0-2-2-0-0-0-
G = G = -3-2-0-0-0-3-
D = D = -X-X-0-2-3-2- 
C = C = -X-3-2-0-1-0-


Intro:
   “Em”
e|-----------------------------|------------------|------------|
B|-------------------2-2--2--0-|----(7)b8r7-------|------------|
G|-------------------2-2--2--0-|-/9---------9-7-9-|------------|
D|----(5)b6r5--------2-2--2--0-|------------------|-7-5-7--52-|
A|-/7---------7----------------|------------------|------------|
E|--------------6-7------------|------------------|------------|

    Em
Ze likt aan haar glas terwijl ze naar hem lacht

hij stapt op haar toe ze had het wel verwacht

Morgen heeft ze spijt dat weet ze veel te goed
                                                      C
toch doet ze het opnieuw en opnieuw en opnieuw en opnieuw
                         D
Wie kan het wat schelen zo zijn er zo velen

 G        Em
Ik wil je, blijf bij me 
 C         D               G
hou van me, ga nooit meer weg

 G        Em
Ik wil je, blijf bij me 
 C        D                Em
hou van me, ik word stapelgek

  “Em”
e|---------------|------|
B|---------------|------|
G|-----9p7-------|--92-|
D|-----9p7----9--|--92-|
A|-7-------10----|------|
E|---------------|------|

Em
Alles wat ze zegt klink vals en koud

zelfs als ze zegt dat ze van hem houdt

Ze weet dat ze liegt toch zegt ze het opnieuw

en opnieuw en opnieuw en opnieuw en opnieuw en 

opnieuw en opnieuw en opnieuw
C                        D
Wie kan het wat schelen zo zijn er zo velen

G        Em
Ik wil je, blijf bij me 
 C         D               G
hou van me, ga nooit meer weg

G        Em
Ik wil je, blijf bij me 
 C        D                G
hou van me, ik word stapelgek

 G        Em
Ik wil je, blijf bij me 
 C         D            C
hou van me, zegt ze opnieuw, 
 
...... Helaas, de rest is alleen voor leden /  Members only please subscribe .......
Gitaar Tabs

Speel de Chord van Guus Meeuwis - Ik Wil Je

Meld je direct aan, pak je gitaar en speel binnen 15 sec mee - Chord van Guus Meeuwis - Ik Wil Je.
Reeds 65.000 gitaristen zijn je voorgegaan.

DIRECT AANMELDEN  

Beoordeel deze tab: Guus Meeuwis - Ik Wil Je


Comments: Guus Meeuwis - Ik Wil Je - chords

5

Plaats bericht voor Guus Meeuwis - Ik Wil Je

Via onderstaande formulier kan je een comment plaatsen bij de chords van Guus Meeuwis met Ik Wil Je.