Ik wil je

Artiest:	Guus Meeuwis
Album:	
Capo:	3
Tuning:	E-A-D-G-B-E
uitgezocht door:	A. Rutten

--------------------------------------------------------------------

Capo 3     

Em = E Mineur = -0-2-2-0-0-0-
G = G = -3-2-0-0-0-3-
D = D = -X-X-0-2-3-2- 
C = C = -X-3-2-0-1-0-


Intro:
   “Em”
e|-----------------------------|------------------|------------|
B|-------------------2-2--2--0-|----(7)b8r7-------|------------|
G|-------------------2-2--2--0-|-/9---------9-7-9-|------------|
D|----(5)b6r5--------2-2--2--0-|------------------|-7-5-7--52-|
A|-/7---------7----------------|------------------|------------|
E|--------------6-7------------|------------------|------------|

    Em
Ze likt aan haar glas terwijl ze naar hem lacht

hij stapt op haar toe ze had het wel verwacht

Morgen heeft ze spijt dat weet ze veel te goed
                                                      C
toch doet ze het opnieuw en opnieuw en opnieuw en opnieuw
                         D
Wie kan het wat schelen zo zijn er zo velen

 G        Em
Ik wil je, blijf bij me 
 C         D               G
hou van me, ga nooit meer weg

 G        Em
Ik wil je, blijf bij me 
 C        D                Em
hou van me, ik word stapelgek

  “Em”
e|---------------|------|
B|---------------|------|
G|-----9p7-------|--92-|
De rest van dit nummer alleen voor Gitaartabs leden! Maak gratis Gitaartabs account aan . 
Gitaar Tabs

Speel de Chord ♪ Guus Meeuwis - Ik Wil Je

Meld je aan en speel binnen 15 sec mee met Chord ♫ Guus Meeuwis - Ik Wil Je.
Reeds 65.000 gitaristen zijn je voorgegaan.

Gratis Aanmelden Gitaartabs - Basis

Beoordeel deze Gitaartab: Guus Meeuwis - Ik Wil Je

Comments Guus Meeuwis - Ik Wil Je - chords

Plaats opmerkingen e.o. suggestie voor Guus Meeuwis - Ik Wil Je