Intro:

E E B A (x4)

       E                B        A
When I need motivation, my one solution is my
E                             B    A
queen cause she' stay strong, yeah yeah
       E                          B            A
She is always in my corner, right there when I want her
          E                                 B                 A
All these other girls are tempting, but I'm empty when you're gone and they say

Pre-chorus:
E       A        B                A
 Do you need me? Do you think I'm pretty?
     E                  A                     B       A
Do I make you feel like cheating and I'm like no,
De rest van dit nummer alleen voor Gitaartabs leden! Maak gratis Gitaartabs account aan . 
Gitaar Tabs

Speel de Chord ♪ Omi - Cheerleader

Meld je aan en speel binnen 15 sec mee met Chord ♫ Omi - Cheerleader.
Reeds 65.000 gitaristen zijn je voorgegaan.

Gratis Aanmelden Gitaartabs - Basis

Beoordeel deze Gitaartab: Omi - Cheerleader

Comments Omi - Cheerleader - chords

noukgitaar

Noukgitaar 2015-07-12

hallo ik weet niet wat ik hierover moet zeggen


JanH

JanH 2015-05-12

Intro Omi Cheerleader
----------0-0-------------------------0-0-----------------------------------------
-------2----------4-----2-----------2-------4--2---0------------------------------
---1--------------4-----2--------1----------4--2-----1----------------------------
---2--------------4-----2--------2----------4--2----------------------------------
---2--------------2-----0--------2----------2--0----------------------------------
---0-----------------------------0------------------------------------------------
   E              B    A


----------0-0--------4--2-----0---------------------------------------------
-------2----------4-----2---2-----------------------4----2------------------
---1--------------4-----2-----------------1---------4----2------------------
---2--------------4-----2-----------------2---------4----2------------------
---2--------------2-----0-----------------2---------2----0------------------
---0--------------------------------------0---------------------------------


JanH

JanH 2015-02-25


Plaats opmerkingen e.o. suggestie voor Omi - Cheerleader

Meer Omi songs

Omi - Cheerleader