Als Er In Een Stuk geen Akkoorden Staan Zijn Die Hetzelfde Als in Een Eerder
Stuk Je Hoort Vanzelf Welk Akkoorden Schema Er Bij De Niet Geakkoneerde Stukken Moeten....Have Fun...lastwulf !

C#m = Cis Mineur = -X-4-6-6-5-4-
G#m = Gis Mineur = -4-6-6-4-4-4-
A9 = A Negen = -5-7-5-6-5-7-
E = E = -0-2-2-1-0-0-
A = A = -X-0-2-2-2-0-
B = B = -X-2-4-4-4-2-
C#m7 = Cis Zeven = -X-4-6-4-5-7-

--- - Fade Out
h   - hammer on
p   - pull off

Maat: 4/4



Anouk - Alright



Intro:
              “C#m”   “G#m”     “A9”             “E”
e|--------------------------------------------------|
B|--------------------------------------------------|
G|--------------------------------------------------|
D|-------------6-6-4------6-6-4---------------------|
A|---2---2-4---------7----------7-4-----------------|
E|-4---4---------------7--------------7-0h4-7-4h5p0-|
   C#m”    “G#m”       “A9”           “E”
e|--------------------------------------------------|
B|--------------------------------------------------|
G|--------------------------------------------------|
D|---6-6-4------6-6-4-------------------------------|
A|---------7----------7-4---------------------------|
E|-7---------7-------------7-0h4-7-4h5p0------------|

C#m                G#m           A
Oh, some things are better left
De rest van dit nummer alleen voor Gitaartabs leden! Maak gratis Gitaartabs account aan . 
Gitaar Tabs

Speel de Tab ♪ Anouk - Alright

Meld je aan en speel binnen 15 sec mee met Tab ♫ Anouk - Alright.
Reeds 65.000 gitaristen zijn je voorgegaan.

Gratis Aanmelden Gitaartabs - Basis

Beoordeel deze Gitaartab: Anouk - Alright

Comments Anouk - Alright - tab

maureen

Maureen 2009-05-14

IK BEN NIEUW!!


maureen

Maureen 2009-05-14

ik ben nieuw,

ik snap het niet, kun je het in een tab zetten (een duidelijke)

ik kan wel gitaar spelen, maar nog geen specafieke akkoorden!


Plaats opmerkingen e.o. suggestie voor Anouk - Alright