Streaming Bladmuziek ProTabs

Correcte Tabs - ProTABS

Live meespelen icm video
Wekelijks nieuwe Top 40 songs
Geschreven door gitaardocenten

Vanaf € 5,95 per maand!
Info ProTabs
Streaming Bladmuziek ProTabs

Online Gitaarles

Voor beginners & gevorderden
Lessen incl. begeleidingsmateriaal
Persoonlijke feedback

Vanaf € 9,95 per maand!
Info Online Gitaarles
Als Er In Een Stuk geen Akkoorden Staan Zijn Die Hetzelfde Als in Een Eerder
Stuk Je Hoort Vanzelf Welk Akkoorden Schema Er Bij De Niet Geakkoneerde Stukken Moeten....Have Fun...lastwulf !

C#m = Cis Mineur = -X-4-6-6-5-4-
G#m = Gis Mineur = -4-6-6-4-4-4-
A9 = A Negen = -5-7-5-6-5-7-
E = E = -0-2-2-1-0-0-
A = A = -X-0-2-2-2-0-
B = B = -X-2-4-4-4-2-
C#m7 = Cis Zeven = -X-4-6-4-5-7-

--- - Fade Out
h   - hammer on
p   - pull off

Maat: 4/4



Anouk - Alright



Intro:
              “C#m”   “G#m”     “A9”             “E”
e|--------------------------------------------------|
B|--------------------------------------------------|
G|--------------------------------------------------|
D|-------------6-6-4------6-6-4---------------------|
A|---2---2-4---------7----------7-4-----------------|
E|-4---4---------------7--------------7-0h4-7-4h5p0-|
   C#m”    “G#m”       “A9”           “E”
e|--------------------------------------------------|
B|--------------------------------------------------|
G|--------------------------------------------------|
D|---6-6-4------6-6-4-------------------------------|
A|---------7----------7-4---------------------------|
E|-7---------7-------------7-0h4-7-4h5p0------------|

C#m                G#m           A
Oh, some things are better left unsaid 
               G#m
You’ll find a nice place to hide them 
 C#m            G#m
But days like this 
               A               G#m
There is just too much going on, yeah 

   C#m”    “G#m”       “A9”           “E”
e|--------------------------------------------------|
B|--------------------------------------------------|
G|--------------------------------------------------|
D|--6-6-4------6-6-4--------------------------------|
A|--------7----------7-4--------------------2---2-4-|
E|----------7-------------7-0h4-7-4h5p0---4---4-----|

So I’m picking up the pieces of my past 
But I can’t find no peace at all 
So in other words 
...... Helaas, de rest is alleen voor leden /  Members only please subscribe .......
Gitaar Tabs

Speel de Tab van Anouk - Alright

Meld je direct aan, pak je gitaar en speel binnen 15 sec mee - Tab van Anouk - Alright.
Reeds 65.000 gitaristen zijn je voorgegaan.

DIRECT AANMELDEN  

Beoordeel deze tab: Anouk - Alright


Comments: Anouk - Alright - tab

5
maureen

Maureen 2009-05-14

IK BEN NIEUW!!


maureen

Maureen 2009-05-14

ik ben nieuw,

ik snap het niet, kun je het in een tab zetten (een duidelijke)

ik kan wel gitaar spelen, maar nog geen specafieke akkoorden!



Plaats bericht voor Anouk - Alright

Via onderstaande formulier kan je een comment plaatsen bij de tab van Anouk met Alright.