Streaming Bladmuziek ProTabs
Riff1
e-----------------|------------------|-------------------|-------------------|
B---1--1-1---1--1-|---3---3-3---3--3-|---2----2-2---2--2-|---2---2-2---2-----|
G---2--2-2---2--2-|---2---2-2---2--2-|---2----2-2---2--2-|---2---2-2---2---1-|
D-----------------|------------------|-------------------|-----------------2-|
A-0--0-----0------|------------------|-------------------|-------------------|
E-----------------|-4---4-----4------|-3----3-----3------|-2---------1---0---|
  Am                D/G#               A/G                 F#m       A/F E

Intro solo (start at A/G)
e-17--15--13--12--10---------
B----------------------12-10-

Riff1

Am                         D/G#
   Can you tell me how you feel
                        A/G 
When you turn on your tv 
                        F#m
When you see me singing through my tears

Solo (start after 'these years')
e-12--10--8--7----------

     A/F      E         Am
I've saved up all these years_

D/G#                        A/G
   Can you tell me what you see 
                     F#m        A/F   E
   When you read the magazines 
Am                        D/G#
   Do you see yourself in me 
                        A/G
When you read the magazines
              
...... Helaas, de rest is alleen voor leden /  Members only please subscribe .......
Gitaar Tabs

Speel de Tab van Anouk - It Wasn't Me

Meld je direct aan, pak je gitaar en speel binnen 15 sec mee - Tab van Anouk - It Wasn't Me.
Reeds 65.000 gitaristen zijn je voorgegaan.

DIRECT AANMELDEN  

Beoordeel deze tab: Anouk - It Wasn't Me


Comments: Anouk - It Wasn't Me - tab

5

Plaats bericht voor Anouk - It Wasn't Me

Via onderstaande formulier kan je een comment plaatsen bij de tab van Anouk met It Wasn't Me.