Gratis ProTab

Gratis Download Robin Schulz - Sugar - ProTab

Ontvang deze ProTab (pdf) direct per e-mail, waarna je hem kan downloaden, online bekijken en printen. ProTabs, zijn correcte songs in Tab en bladmuziek geschreven door afgestudeerde conservatorium gitaristen.

   CHORDS:
   -------
           EADGBE        EADGBE
   A      (x02220)    C (x35553)
   Bb     (x13331)    D (x57775)
   Bbmaj7 (x13231)

   Guitar 1 plays the tabs, guitar 2 plays the chords above the tabs.
   
   
   Tab notation:
   -------------
   ~ = sustain note
   b = bend up to value between ( )
   r = release bend
   p = pull off
   
   
   Fig.1: [Guitar 1 playes the tab, Guitar 2 plays the chords softly]
   
      D   D     C   Bb              Bb   Bb C   C
    | 1 . 2 . 3 . 4 . | 1 . 2 . 3 . 4 . | 1 . 2 . 3 . 4 . | 1 . 2 . 3 . 4 . |
   E|-----------------|-----------------|-----------------|-----------------|
   B|-----------------|-----------------|-----------------|-3-----3~~~~~~~~-|
   G|---2-0-----------|---0~~~~~~~~~----|-----------------|-0-----0~~~~~~~~-|
   D|-0~~~~~~~~-3---3-|-----0-------0---|-0-2---2---------|-----------------|
   A|-----------------|-------------1---|-1-3---3-------3~|~~~~~~~~~~~~~~~~-|
   E|-----------------|-----------------|-----------------|-----------------|
   
   
   INTRO: 
   ------
   Play Fig.1 two times
   
   
   VERSE 1: [play Fig.1]
   --------
   I'm just thinkin' about the child in me,
   That I sometimes feel inside
   And I'm figuring out just what it is
   That makes me feel so small
   Is it you, that hurts me when I give myself
   Every day and every night
   Am I too blind to see that it doesn't work out
   Did I really ask too much of you 
   
   
   PRE-CHORUS:
   -----------
      Bbmaj7                              C
    | 1 . 2 . 3 . 4 . | 1 . 2 . 3 . 4 . | 1 . 2 . 3 . 4 . | 1 . 2 . 3 . 4 . |
   E|-1---------------|-----------------|-3---------------|-----------------|
   B|-3---------------|-----------------|-5---------------|-----------------|
   G|-2---------------|------------
...... Helaas, de rest is alleen voor leden /  Members only please subscribe .......
Gitaar Tabs

Speel de Tab van Anouk - It's So Hard

Meld je direct aan, pak je gitaar en speel binnen 15 sec mee - Tab van Anouk - It's So Hard.
Reeds 65.000 gitaristen zijn je voorgegaan.

DIRECT AANMELDEN >> Anouk - It's So Hard <<  

Beoordeel deze tab: Anouk - It's So Hard


Comments: Anouk - It's So Hard - tab

5

Plaats bericht voor Anouk - It's So Hard

Via onderstaande formulier kan je een comment plaatsen bij de tab van Anouk met It's So Hard.