Streaming Bladmuziek ProTabs

Correcte Tabs - ProTABS

Live meespelen icm video
Wekelijks nieuwe Top 40 songs
Geschreven door gitaardocenten

Vanaf € 5,95 per maand!
Info ProTabs
Streaming Bladmuziek ProTabs

Online Gitaarles

Voor beginners & gevorderden
Lessen incl. begeleidingsmateriaal
Persoonlijke feedback

Vanaf € 9,95 per maand!
Info Online Gitaarles
   CHORDS:
   -------
           EADGBE        EADGBE
   A      (x02220)    C (x35553)
   Bb     (x13331)    D (x57775)
   Bbmaj7 (x13231)

   Guitar 1 plays the tabs, guitar 2 plays the chords above the tabs.
   
   
   Tab notation:
   -------------
   ~ = sustain note
   b = bend up to value between ( )
   r = release bend
   p = pull off
   
   
   Fig.1: [Guitar 1 playes the tab, Guitar 2 plays the chords softly]
   
      D   D     C   Bb              Bb   Bb C   C
    | 1 . 2 . 3 . 4 . | 1 . 2 . 3 . 4 . | 1 . 2 . 3 . 4 . | 1 . 2 . 3 . 4 . |
   E|-----------------|-----------------|-----------------|-----------------|
   B|-----------------|-----------------|-----------------|-3-----3~~~~~~~~-|
   G|---2-0-----------|---0~~~~~~~~~----|-----------------|-0-----0~~~~~~~~-|
   D|-0~~~~~~~~-3---3-|-----0-------0---|-0-2---2---------|-----------------|
   A|-----------------|-------------1---|-1-3---3-------3~|~~~~~~~~~~~~~~~~-|
   E|-----------------|-----------------|-----------------|-----------------|
   
   
   INTRO: 
   ------
   Play Fig.1 two times
   
   
   VERSE 1: [play Fig.1]
   --------
   I'm just thinkin' about the child in me,
   That I sometimes feel inside
   And I'm figuring out just what it is
   That makes me feel so small
   Is it you, that hurts me when I give myself
   Every day and every night
   Am I too blind to see that it doesn't work out
   Did I really ask too much of you 
   
   
   PRE-CHORUS:
   -----------
      Bbmaj7                              C
    | 1 . 2 . 3 . 4 . | 1 . 2 . 3 . 4 . | 1 . 2 . 3 . 4 . | 1 . 2 . 3 . 4 . |
   E|-1---------------|-----------------|-3---------------|-----------------|
   B|-3---------------|-----------------|-5---------------|-----------------|
   G|-2---------------|-----------------|-5-------------7-|-----------------|
   D|-3---------------|-----------------|-5---------------|---5-------------|
   A|-1---------------|-----------------|-3---------------|-------3---------|
   E|-1---------------|-----------------|-3---------------|-----------------|
      baby.             Do you mean to    tell me       that's the way it
    is
   
    Bbmaj7                              C               A
    | 1 . 2 . 3 . 4 . | 1 . 2 . 3 . 4 . | 1 . 2 . 3 . 4 . | 1 . 2 . 3 . 4 . |
   E|-1---------------|-----------------|-3-------------0-|-----------------|
   B|-3---------------|-----------------|-5-------------2-|-----------------|
   G|-2---------------|-----------------|-5-------------2-|-----------------|
   D|-3---------------|-----------------|-5-------------2-|-----------------|
   A|-1---------------|-----------------|-3-------------0-|-----------------|
   E|-1---------------|-----------------|-3-------------0-|-----------------|
                          Do you mean to say
     
   
   CHORUS:
   -------
   Guitar 1 plays this:
   
   Fig.2: [play it over and over]
   E|----15-17----15-17--|
   B|--------------------|  
   G|-14-------14--------| 
   D|--------------------|
   A|--------------------|
   E|--------------------|
   
   Guitar 2 plays these chords: D - C - Bb - C (over and over)
   
   
   It's all so hard, It's so hard
   It's all so hard, It's so hard
     
   
   VERSE 2: [play Fig.1]
   -------- 
   As I search for an answer, I see the clear blue sky
   And I know that you're the one to blame
   And I feel so naive
   When you say that our love to you was just a game
   
   [Guitar 2 play chords louder: D - C - Bb - C]
   
   I dream, my dream, I'm sane, I'm insane
   Oh, please don't, please don't speak to me that w
...... Helaas, de rest is alleen voor leden /  Members only please subscribe .......
Gitaar Tabs

Speel de Tab van Anouk - It's So Hard

Meld je direct aan, pak je gitaar en speel binnen 15 sec mee - Tab van Anouk - It's So Hard.
Reeds 65.000 gitaristen zijn je voorgegaan.

DIRECT AANMELDEN  

Beoordeel deze tab: Anouk - It's So Hard


Comments: Anouk - It's So Hard - tab

5

Plaats bericht voor Anouk - It's So Hard

Via onderstaande formulier kan je een comment plaatsen bij de tab van Anouk met It's So Hard.