Streaming Bladmuziek ProTabs

Correcte Tabs - ProTABS

Live meespelen icm video
Wekelijks nieuwe Top 40 songs
Geschreven door gitaardocenten

Vanaf € 5,95 per maand!
Info ProTabs
Streaming Bladmuziek ProTabs

Online Gitaarles

Voor beginners & gevorderden
Lessen incl. begeleidingsmateriaal
Persoonlijke feedback

Vanaf € 9,95 per maand!
Info Online Gitaarles
    Gsus4                   D/F#
e |--------------------------------------------------------------|
B |--------3-------------3-------------3-------------3-------|
G |-----0---0--------0---0--------2---2--------2---2-----|
D |---0-------0----0-------0----0-------0----0-------0---|
A |--------------------------------------------------------------|
E |-3------------3------------2------------2-----------------|

     Csus4                  D/F#
e |---------------------------------------------------------------|
B |---------3-------------3-------------3-------------3-------|
G |------0---0--------0---0--------2---2--------2---2-----|
D |----2-------2----2-------2----0-------0----0-------0---|
A |--3------------3---------------------------------------------|
E |--------------------------------2------------2---------------|

(intro)
Gsus4  D/F#  Csus4  D/F#  
Gsus4  D/F#  Csus4  D/F#  

Gsus4
 If Roses are meant to be red
D/F#
 And violets to be blue
Csus4
 Why isn't my heart
...... Helaas, de rest is alleen voor leden /  Members only please subscribe .......
Gitaar Tabs

Speel de Tab van Anouk - Lost

Meld je direct aan, pak je gitaar en speel binnen 15 sec mee - Tab van Anouk - Lost.
Reeds 65.000 gitaristen zijn je voorgegaan.

DIRECT AANMELDEN  

Beoordeel deze tab: Anouk - Lost


Comments: Anouk - Lost - tab

5
JanH

JanH 2013-09-09

Officiële video


Donperno

Donperno 2013-02-08

ff zoeken op U tube, geer en greetje..;-)


valentino2001

Valentino2001 2013-02-04

hij klopt helemaal wel hoor gijs99225 je hebt het helemaal fout hoor want bloody mary of zo heevt gelijk en jij niet


gijs99225

Gijs99225 2011-05-06

deze tab klopt niet, het hoort een soort trappetje te zijn, en dat is het niet.


mistermidi

Mistermidi 2011-03-04

Deze tab klopt wel aardig (voor beginners), maar niet alle akkoordnamen die erbij staan kloppen. Zo is het geen Gsus4 maar gewoon G, en het is geen Csus4 maar een Cadd9 (met alle respect voor de tabber, maar volgens mij weet hij niet echt wat susakkoorden zijn). Maar het grootste gemis vind ik wel de Am7 (x02010) die je op het eind van het nummer een paar keer hoort.

Voor gevorderden/mierenneukers (of gevorderde mierenneukers :-p) zitten er in het origineel wel een paar subtiele verschillen. De gitarist van Anouk wisselt de Cadd9 (x32030) af met C (x32010) met af en toe een hammer-on op de D-snaar (0h2). Ook wisselt hij de D/F# (2x0232) af met Dadd11 (x5403x). Klinkt moeilijker dan het is, het is gewoon een open C-akkoord maar dan 2 vakjes opgeschoven.

Hier voor de mierenneukers onder ons het schema met de goede akkoorden (de met (*) gemerkte akkoorden zijn met de hammer-on op de D-snaar):



Akkoorden zoals ze in dit nummer gespeeld worden (tussen haakjes de "normale" grepen):
G       3x003x (320033)
C       x3201x (x32010)
Cadd9   x3203x (x32033)
D/F#    2x023x (2x0232)
Dadd11  x5403x
Am      x0221x (x02210)
Am7     x0201x (x02010)


intro:
|G       |%       |D/F#    |%       |Cadd9   |%       |D/F#    |(rust)  |

|G       |%       |D/F#    |%       |Cadd9(*)|Cadd9   |D/F#    |%       | If roses are meant...
|G       |%       |D/F#    |%       |Cadd9   |%       |D/F#    |%       | My hands are longing...

|G       |%       |D/F#    |%       |C(*)    |C       |Dadd11  |%       | Lost in this world...

|G       |%       |D/F#    |%       |C(*)    |C       |D/F#    |%       | This music's irresistable...
|G       |%       |D/F#    |%       |C(*)    |Cadd9   |D/F#    |%       | Mister Inaccessible...

|G       |%       |D/F#    |%       |C(*)    |C       |Dadd11  |%       | Lost in this world...
|G       |%       |D/F#    |%       |C(*)    |Am      |Dadd11  |%       | I get lost...

bridge/intermezzo:
|C       |Cadd9   |Dadd11  |%       |Am7     |%       |Dadd11  |%       | Yeah yeah

|G       |%       |D/F#    |%       |C(*)    |Cadd9   |Dadd11  |%       | Lost in this world...

|G       |%       |D/F#    |%       |Cadd9(*)|Am7     |Dadd11  |%       | Ooooohh etc.
|G       |%       |D/F#    |%       |C       |%       |Dadd11  |%       | (hier kun je slag gaan spelen
|G       |%       |D/F#    |%       |C       |Am7     |Dadd11  |(rust)  |  in plaats van tokkelen)
|G       |


nobody

Nobody 2010-12-23

--------------------------------------------------------------


bloody-marry

Bloody-marry 2010-10-29

Vet leuk nummer om te spelen!

 


bloody-marry

Bloody-marry 2010-10-29

Hij moet aan het einde nog net ietsje anders..


bloody-marry

Bloody-marry 2010-10-29

E|---------------------------------------------------------------|
B |---------3-------------3-------------3-----3----------------|
G |------0---0--------0---0--------2---2----------------|
D |----2-------2----2-------2----0-------0--------------|
A |--3------------3---------------------------------------------|
E |--------------------------------2---------------------------|


celine6

Celine6 2010-10-03

moet wel eerst effe zoeken maar daarna hoop ik dat het wel lukt


timo381

Timo381 2010-09-05

    Gsus4                   D/F#
e |-----------------------------------------------------|
B |-------3------------3------------3------------3------|
G |-----0---0--------0---0--------0---0--------0---0----|
D |---0-------0----0-------0----0-------0----0-------0--|
A |-----------------------------------------------------|
E |-3------------3------------2------------2------------|
 
     Csus4                  D/F#
e |-----------------------------------------------------|
B |--------3------------3------------3------------3-----|
G |------0---0--------0---0--------0---0--------0---0---|
D |----2-------2----2-------2----0-------0----0-------0-|
A |--3------------3-------------------------------------|
E |---------------------------2------------2------------|


timo381

Timo381 2010-09-05

De tab hier onder is de goede;)


Beppie

Beppie 2010-08-15

Ksnap er gene fuk van


lwraaa

Lwraaa 2010-06-13

het is met een tokkel niet met een slag


ctjuh

Ctjuh 2010-04-01

moet het niet zo?

E|---------------------------------------------------------------|
B |---------3-------------3-------------3-------------3-------|
G |------0---0--------0---0--------2---2--------2---2-----|
D |----2-------2----2-------2----0-------0----0-------0---|
A |--3------------3---------------------------------------------|
E |--------------------------------2------------2---------------|


hamster

Hamster 2010-03-17

mooi nummer


Anouk-132

Anouk-132 2010-02-28

Wat is de slag van dit nummer?


loes van genderen

Loes van genderen 2010-02-27

Weet iemand hoe je Gsus4 en Csus4 speelt? ik heb al gezocht, maar overal vond ik wat anders en geen van allen klopteXD


Yentll

Yentll 2010-02-12

Dankjeee ! klopt idd helemaal!


juan-salvador

Juan-salvador 2009-11-12

hij klopt helemaal niet


juan-salvador

Juan-salvador 2009-11-12

sorry klopt wel xD


FOTF_Mark

FOTF_Mark 2009-09-24

misschien moet je je gitaar dan even gaan stemmen, want dit werkt prima!


duistere gitaar

Duistere gitaar 2009-02-18

het klinkt niet mooi op akoestische gitaar is het er wel voor
Verbaasd VerbaasdVerbaasdVerbaasdVerbaasdVerbaasdVerbaasdVerbaasdVerbaasdVerbaasdVerbaasdVerbaasdVerbaasdVerbaasdVerbaasdVerbaasdVerbaasdVerbaasdVerbaasdVerbaasdVerbaasd??



Plaats bericht voor Anouk - Lost

Via onderstaande formulier kan je een comment plaatsen bij de tab van Anouk met Lost.