Streaming Bladmuziek ProTabs
(riff 1)
  dsus2         bm              em7             asus
E--------0h2--|----------------|----------------|----------------|
B-----3-------|-----3----------|-----3----------|----3-3---------|
G---2---------|-----4----------|-----0-----0----|----0-0-----0---|
D-0-----------|----4-----------|---2-----2------|----------2-----|
A-------------|--2---------2-0-|----------------|--0-------------|
E-------------|----------------|-0--------------|----------------|

(riff 2)
     bm              g                d(dsus2)
E-------------|----------------|-----0---0h2---0----------------|
B----3--------|-------3--------|-----3-------3------------------|
G----4--------|-------0--------|---2----2-----------------------|
D---4---4-----|---------0------|-0-----0------------------------|
A-2-------2---|----------2-----|--------------------------------|
E-------------|---3------------|--------------------------------|

(riff 3)
  bm                  g               d(dsus2)        bm
E-------------|----------------|----0h2
...... Helaas, de rest is alleen voor leden /  Members only please subscribe .......
Gitaar Tabs

Speel de Tab van Anouk - Lovin'whiskey

Meld je direct aan, pak je gitaar en speel binnen 15 sec mee - Tab van Anouk - Lovin'whiskey.
Reeds 65.000 gitaristen zijn je voorgegaan.

DIRECT AANMELDEN  

Beoordeel deze tab: Anouk - Lovin'whiskey


Comments: Anouk - Lovin'whiskey - tab

5

Plaats bericht voor Anouk - Lovin'whiskey

Via onderstaande formulier kan je een comment plaatsen bij de tab van Anouk met Lovin'whiskey.