Streaming Bladmuziek ProTabs

Correcte Tabs - ProTABS

Live meespelen icm video
Wekelijks nieuwe Top 40 songs
Geschreven door gitaardocenten

Vanaf € 5,95 per maand!
Info ProTabs
Streaming Bladmuziek ProTabs

Online Gitaarles

Voor beginners & gevorderden
Lessen incl. begeleidingsmateriaal
Persoonlijke feedback

Vanaf € 9,95 per maand!
Info Online Gitaarles
(riff 1)
  dsus2         bm              em7             asus
E--------0h2--|----------------|----------------|----------------|
B-----3-------|-----3----------|-----3----------|----3-3---------|
G---2---------|-----4----------|-----0-----0----|----0-0-----0---|
D-0-----------|----4-----------|---2-----2------|----------2-----|
A-------------|--2---------2-0-|----------------|--0-------------|
E-------------|----------------|-0--------------|----------------|

(riff 2)
     bm              g                d(dsus2)
E-------------|----------------|-----0---0h2---0----------------|
B----3--------|-------3--------|-----3-------3------------------|
G----4--------|-------0--------|---2----2-----------------------|
D---4---4-----|---------0------|-0-----0------------------------|
A-2-------2---|----------2-----|--------------------------------|
E-------------|---3------------|--------------------------------|

(riff 3)
  bm                  g               d(dsus2)        bm
E-------------|----------------|----0h2---------|----------------|
B----3--------|-----3----------|----3-----------|-----3----------|
G----4--------|-----0----------|---2-----2------|-----4----------|
D---4----4----|---------0------|--0--------0----|---4------------|
A-2--------2--|----------2-----|----------------|--2------2--0---|
E-------------|--3-------------|----------------|----------------|
     em7           f#dsus2           asus2            dm
E-------------|----------------|----------0-----|----0---0hb10---|
B-----3-------|-----3----------|--------3---3---|-------3-----3--|
G-----0-------|-----2----------|------0------0-2|---2--2-------2-|
D---2----2----|---0----0-------|----2-----------|--0-------------|
A-------------|----------------|--0-------------|----------------|
E-0-----------|--2-------------|----------------|----------------|

(riff 4)

  dsus2         bm              em7
E--------0h2--|----------------|----------------|
B-----3-------|-----3----------|-----3----------|
G---2---------|-----4----------|-----0-----0----|
D-0--
...... Helaas, de rest is alleen voor leden /  Members only please subscribe .......
Gitaar Tabs

Speel de Tab van Anouk - Lovin'whiskey

Meld je direct aan, pak je gitaar en speel binnen 15 sec mee - Tab van Anouk - Lovin'whiskey.
Reeds 65.000 gitaristen zijn je voorgegaan.

DIRECT AANMELDEN  

Beoordeel deze tab: Anouk - Lovin'whiskey


Comments: Anouk - Lovin'whiskey - tab

5

Plaats bericht voor Anouk - Lovin'whiskey

Via onderstaande formulier kan je een comment plaatsen bij de tab van Anouk met Lovin'whiskey.