(riff 1)
  dsus2         bm              em7             asus
E--------0h2--|----------------|----------------|----------------|
B-----3-------|-----3----------|-----3----------|----3-3---------|
G---2---------|-----4----------|-----0-----0----|----0-0-----0---|
D-0-----------|----4-----------|---2-----2------|----------2-----|
A-------------|--2---------2-0-|----------------|--0-------------|
E-------------|----------------|-0--------------|----------------|

(riff 2)
     bm              g                d(dsus2)
E-------------|----------------|-----0---0h2---0----------------|
B----3--------|-------3--------|-----3-------3------------------|
G----4--------|-------0--------|---2----2-----------------------|
D---4---4-----|---------0------|-0-----0------------------------|
A-2-------2---|----------2-----|--------------------------------|
E-------------|---3------------|--------------------------------|

(riff 3)
  bm                  g               d(dsus2)        bm
E-------------|----------------|----0h2---------|----------------|
B----3--------|-----3----------|----3-----------|-----3----------|
G----4--------|-----0----------|---2-----2------|-----4----------|
D---4----4----|---------0------|--0--------0----|---4------------|
A-2--------2--|----------2-----|----------------|--2------2--0---|
E-------------|--3-------------|---------------
De rest van dit nummer alleen voor Gitaartabs leden! Maak gratis Gitaartabs account aan . 
Gitaar Tabs

Speel de Tab ♪ Anouk - Lovin'whiskey

Meld je aan en speel binnen 15 sec mee met Tab ♫ Anouk - Lovin'whiskey.
Reeds 65.000 gitaristen zijn je voorgegaan.

Gratis Aanmelden Gitaartabs - Basis

Beoordeel deze Gitaartab: Anouk - Lovin'whiskey

Comments Anouk - Lovin'whiskey - tab

Plaats opmerkingen e.o. suggestie voor Anouk - Lovin'whiskey