gemakkelijke liedjes

De leukste liedjes per e-mail

Ontvang direct (gemakkelijke) liedjes per mail in pdf (ProTabs) en online liedjes die je kunt downloaden, online bekijken en printen.

Tuning	Tune guitar in Eb

Legend      h  = hammer-on           p  = pull-off
            b  = bend                r  = bend release
            /  = slide up/down      <5> = natural harmonic
           [5] = artifical harmonic  ~  = vibrato
            tr = trill               ´  = Break
            ^  = Appegio


{Intro}
{Clean Guitar}
  E                B                D                A
  1   2   3   4    1   2   3   4    1   2   3   4    1   2   3   4  
E[------0---------|------0---------|0---------------|0-----0---------]
B[------0---------|------0---------|0---------------|0---------------]
G[---1--1---------|---8--8---------|11--------------|6--6------------]
D[----2-2---------|----9-9---------|12------12------|7---7-----------]
A[--2---2---------|--9---9---------|12------12------|7-7-------------]
E[0-----0---------|7-----7---------|10---10---------|5---------------]

E[0---------------|0---------------|0---------------|0---------------]
B[0---------------|0---------------|0---------------|0---------------]
G[13--------------|8---------------|11--------------|6---------------]
D[14--------------|9---------------|12--------------|7---------------]
A[14--------------|9---------------|12--------------|7----------0----]
E[0---------------|7---------------|10--------------|5---------0--0--]
     Who is  you happy                  And who      you laugh
     the one                            is the one
     that makes                         that always
                                        makes

E[------0---------|0-----------0---|----------------|------------0---]
B[------0---------|0-----------0---|----------------|------------0---]
G[--13--13--------|8-----------8---|----------------|6-----------6-/-]
D[---14-14--------|9-----------9---|12--------------|7-----------7-/-]
A[------14--------|9-----------99/-|12--------------|7----------77-/-]
E[------0---------|7-----------77/-|10--------------|5----------55---]
     Who is the   smiling              And dragged  rough
     reason you're                     you through
                                       these time so

E[----------------|------------0---|----------------|0---------------]
B[----------------|------------0---|----------------|0---------------]
G[----------------|8-----------8---|----------------|6-----------6-/-]
D[2---------------|9-----------9---|12--------------|7-----------7-/-]
A[2---------------|9----------9-9/-|12--------------|7----------77-/-]
E[0---------------|7----------7-7/-|10---
...... Helaas, de rest is alleen voor leden /  Members only please subscribe .......
Gitaar Tabs

Speel de Tab van Anouk - Sacrifice

Meld je direct aan, pak je gitaar en speel binnen 15 sec mee - Tab van Anouk - Sacrifice.
Reeds 65.000 gitaristen zijn je voorgegaan.

DIRECT AANMELDEN >> Anouk - Sacrifice <<  

Beoordeel deze tab: Anouk - Sacrifice


Comments: Anouk - Sacrifice - tab

5

Plaats bericht voor Anouk - Sacrifice

Via onderstaande formulier kan je een comment plaatsen bij de tab van Anouk met Sacrifice.