Tuning	Tune guitar in Eb

Legend      h  = hammer-on           p  = pull-off
            b  = bend                r  = bend release
            /  = slide up/down      <5> = natural harmonic
           [5] = artifical harmonic  ~  = vibrato
            tr = trill               ´  = Break
            ^  = Appegio


{Intro}
{Clean Guitar}
  E                B                D                A
  1   2   3   4    1   2   3   4    1   2   3   4    1   2   3   4  
E[------0---------|------0---------|0---------------|0-----0---------]
B[------0---------|------0---------|0---------------|0---------------]
G[---1--1---------|---8--8---------|11--------------|6--6------------]
D[----2-2---------|----9-9---------|12------12------|7---7-----------]
A[--2---2---------|--9---9---------|12------12------|7-7-------------]
E[0-----0---------|7-----7---------|10---10---------|5---------------]

E[0---------------|0---------------|0---------------|0---------------]
B[0---------------|0---------------|0---------------|0---------------]
G[13--------------|8---------------|11--------------|6---------------]
D[14--------------|9---------------|12--------------|7---------------]
A[14--------------|9---------------|12--------------|7----------0----]
E[0---------------|7---------------|10--------------|5---------0--0--]
     Who is  you happy                  And who      you laugh
     the one                            is the one
     that makes                         that always
                                        makes

E[------0---------|0-----------0---|----------------|------------0---]
B[------0---------|0-----------0---|----------------|------------0---]
G[--13--13--------|8-----------8---|----------------|6-----------6-/-]
D[---14-14--------|9-----------9---|12--------------|7-----------7-/-]
A[------14--------|9-----------99/-|12--------------|7----------77-/-]
E[------0---------|7-----------77/-|10--------------|5----------55---]
     Who is the   smiling              And dragged  rough
     reason you're                     you through
                                       these time so

E[----------------|------------0---|----------------|0---------------]
B[----------------|------------0---|----------------|0---------------]
G[----------------|8-----------8---|----------------|6-----------6-/-]
D[2---------------|9-----------9---|12--------------|7-----------7-/-]
A[2---------------|9----------9-9/-|12--------------|7----------77-/-]
E[0---------------|7----------7-7/-|10--------------|5----------55---]
    I was the    happy                And I was     pain
    that made you                     the one that
                                      eased the
                                                               
E[------0---------|------------0---|----------------|0-----0-----0---]
B[----------------|------------0---|----------------|0-----0-----0---]
G[---1------------|8-----------8---|----------------|6-66666-66666-/-]
D[2---2-----------|9-----------9---|12--------------|7-77777-77777-/-]
A[2---------------|9----------9-9/-|12--------------|7-77777-77777-/-]
E[0---------------|7----------7-7/-|10--------------|5-66666-66666---]
    But I'm the  crying now            My own    the rain
    reason that                        tears 
         you're                        scattered by
 
E[---
De rest van dit nummer alleen voor Gitaartabs leden! Maak gratis Gitaartabs account aan . 
Gitaar Tabs

Speel de Tab ♪ Anouk - Sacrifice

Meld je aan en speel binnen 15 sec mee met Tab ♫ Anouk - Sacrifice.
Reeds 65.000 gitaristen zijn je voorgegaan.

Gratis Aanmelden Gitaartabs - Basis

Beoordeel deze Gitaartab: Anouk - Sacrifice

Comments Anouk - Sacrifice - tab

Plaats opmerkingen e.o. suggestie voor Anouk - Sacrifice