Legend: h = hammer-on
        P = pull-off
        b = bend the tune a whole step (two frets)
        x = muted with the fingers on your left hand while playing the chord
        / = slide from the first note into the second
        ( )= that's just an echo-effect tone, do not play this note

Tuning : tune your guitar down (a half step) in Eb 

Chords used in the Verse    : ---------------------
                                    E A D G H E
                              ---------------------
                              D     x 5 7 7 x x
                              E     x 7 9 9 x x
                              G     3 5 5 x x x

Chords used in the Chorus  : ---------------------
                                    E A D G H E
                             ---------------------
                              C     x 3 5 5 x x
                              D     x 5 7 7 7 5
                              F     1 3 3 2 1 1
                              Gb    2 4 4 3 2 2
                              G     3 5 5 4 3 3
                              a     5 7 7 5 5 5
--------------------------------------------------------------------------------
let's start!

Verse (with Clean Guitar) Chorus (with Distortion Guitar)

  E        G         D                  E        G         D
E------------------|------------------|------------------|------------------I
B------------------|------------------|------------------|------------------I
G-9--9-x-x---------|-7--(7)--(7)--(7)-|-9--9-x-x---------|-7--(7)--(7)--(7)-I
D-9--9-x-x-5-5-5-x-|-7--(7)--(7)--(7)-|-9--9-x-x-5-5-5-x-|-7--(7)--(7)--(7)-I
A-7--7-x-x-5-5-5-x-|-5--(5)--(5)--(5)-|-7--7-x-x-5-5-5-x-|-5--(7)--(7)--(7)-I
E----------3-3-3-x-|------------------|----------3-3-3-x-|------------------I

  E        G         D                  E        G         D
E------------------|------------------|------------------|------------------I
B------------------|------------------|------------------|------------------I
G-9--9-x-x---------|-7--(7)--(7)--(7)-|-9--9-x-x---------|-7--(7)--(7)--(7)-I
D-9--9-x-x-5-5-5-x-|-7--(7)--(7)--(7)-|-9--9-x-x-5-5-5-x-|-7--(7)--(7)--(7)-I
A-7--7-x-x-5-5-5-x-|-5--(5)--(5)--(5)-|-7--7-x-x-5-5-5-x-|-5--(7)--(7)--(7)-I
E----------3-3-3-x-|------------------|----------3-3-3-x-|------------------I
                                                                         Do I
  E        G         D                  E        G         D
E------------------|------------------|------------------|------------------I
B------------------|------------------|------------------|------------------I
G-9--9-x-x---------|-7----------------|-9--9-x-x---------|-7----------------I
D-9--9-x-x-5-5-5-x-|-7----------------|-9--9-x-x-5-5-5-x-|-7----------------I
A-7--7-x-x-5-5-5-x-|-5----------------|-7--7-x-x-5-5-5-x-|-5----------------I
E----------3-3-3-x-|------------------|----------3-3-3-x-|------------------I
  really  |know my - self               Do I want to  se - e
  want to


  E        G         D                  E        G         D
E------------------|------------------|------------------|------------------I
B------------------|------------------|------------------|------------------I
G-9--9-x-x---------|-7----------------|-9--9-x-x---------|-7----------------I
D-9--9-x-x-5-5-5-x-|-7----------------|-9--9-x-x-5-5-5-x-|-7----------------I
A-7--7-x-x-5-5-5-x-|-5----------------
De rest van dit nummer alleen voor Gitaartabs leden! Maak gratis Gitaartabs account aan . 
Gitaar Tabs

Speel de Tab ♪ Anouk - The Other Side Of Me

Meld je aan en speel binnen 15 sec mee met Tab ♫ Anouk - The Other Side Of Me.
Reeds 65.000 gitaristen zijn je voorgegaan.

Gratis Aanmelden Gitaartabs - Basis

Beoordeel deze Gitaartab: Anouk - The Other Side Of Me

Comments Anouk - The Other Side Of Me - tab

Plaats opmerkingen e.o. suggestie voor Anouk - The Other Side Of Me