Streaming Bladmuziek ProTabs

Correcte Tabs - ProTABS

Live meespelen icm video
Wekelijks nieuwe Top 40 songs
Geschreven door gitaardocenten

Vanaf € 5,95 per maand!
Info ProTabs
Streaming Bladmuziek ProTabs

Online Gitaarles

Voor beginners & gevorderden
Lessen incl. begeleidingsmateriaal
Persoonlijke feedback

Vanaf € 9,95 per maand!
Info Online Gitaarles
song: Tom Waits
artist: Anouk
tab: Date: saturday 15 jan 2000
From: Erik Järdhage 
Subjekt: "Tom Waits" by Anouk from the album "Urban Solitude"


general comments
This tab is pritty long but its mostly the same after you have learned the beginning, after the chorus its only repitation but its still werth locking through the hole tab (i think). 
e|--------------------|--------4--4-----4--|
b|-----------------0--|--------5--5--4--5--|
g|-----------1--------|--------6--6--6--6--|
d|--------2-----2-----|-----6--------6--6--|
a|-----2--------------|--4-----------------|
e|--0-----------------|--------------------|




e|--------------------|--------4--4-----4--|
b|-----------------0--|--------5--5--4--5--|
g|-----------1--------|--------6--6--6--6--|
d|--------2-----2-----|-----6--------6--6--|
a|-----2--------------|--4-----------------|
e|--0-----------------|--------------------|




e|--------------------|--------4--4----------|
b|-----------------0--|--------5--5---5/4----|
g|-----------1--------|--------6--6-------6--|
d|--------2-----2-----|-----6----------------|
a|-----2--------------|--4-------------------|
e|--0-----------------|----------------------|
                I was dreaming last night
e|--------------------|--------4--4-----4--|
b|-----------------0--|--------5--5--4--5--|
g|-----------1--------|--------6--6--6--6--|
d|--------2-----2-----|-----6--------6--6--|
a|-----2--------------|--4-----------------|
e|--0-----------------|--------------------|
         A frigment of my brain

e|--------------------|--------4--4----------|
b|-----------------0--|--------5--5---5/4----|
g|-----------1--------|--------6--6-------6--|
d|--------2-----2-----|-----6----------------|
a|-----2--------------|--4-------------------|
e|--0-----------------|----------------------|
               downtown  train   and we had noware to
e|-----------------|---------------|
b|-----------5--5--|---------------|
g|-----------6--6--|-----------8---|
d|--------7-----7--|--------9------|
a|-----7-----------|-----9---------|
e|--5--------------|--7------------|
    go....

e|--------------------|--------4--4----------|
b|-----------------0--|--------5--5---5/4----|
g|-----------1--------|--------6--6-------6--|
d|--------2-----2-----|-----6----------------|
a|-----2--------------|--4-------------------|
e|--0-----------------|----------------------|
                So we got of          walk
e|--------------------|--------4--4--4----4--|
b|-----------------0--|--------5--5--4--4-5--|
g|-----------1--------|--------6--6--6--6-6--|
d|--------2-----2-----|-----6----------------|
a|-----2--------------|--4-------------------|
e|--0-----------------|----------------------|
           in the        rain
e|--------------------|--------4--4----------|
b|-----------------0--|--------5--5---5/4----|
g|-----------1--------|--------6--6-------6--|
d|--------2-----2-----|-----6----------------|
a|-----2--------------|--4-------------------|
e|--0-----------------|----------------------|
              sad you            and you ride it
e|-----------------|-----------------|
b|-----------5--5--|-----------7--7--|
g|-----------6--6--|-----------8--8--|
d|--------7-----7--|--------9-----9--|
a|-----7-----------|-----9-----------|
e|--5--------------|--7--------------|
  again        please        with you




Chorus:
e|-----------------|-----------------|
b|-----------5--5--|-----------7--7--|
g|-----------6--6--|-----------8--8--|
d|--------7-----7--|--------9-----9--|
a|-----7-----------|-----9-----------|
e|--5--------------|--7--------------|
             Tom waits          for the
e|--------------------|--------4--4--4----4--|
b|-----------------0--|--------5--5--4--4-5--|
g|-----------1--------|--------6--6--6--6-6--|
d|--------2-----2-----|-----6----------------|
a|-----2--------------|--4-------------------|
e|--0-----------------|----------------------|
             to take  away...
e|-----------------|-----------------|
b|-----------5--5--|-----------------|
g|-----------6--6--|--------------8--|
d|--------7-----7--|--------9--------|
a|-----7-----------|-----9-----9-----|
e|--5--------------|--7--------------|
         me  Tom waits           can´t wait
e|--------------------|--------4--4--4----4--|
b|-----------------0--|--------5--5--4--4-5--|
g|-----------1--------|--------6--6--6--6-6--|
d|--------2-----2-----|-----6----------------|
a|-----2--------------|--4-------------------|
e|--0-----------------|----------------------|
 no  more

e|--------------------|--------4--4-----4--|
b|-----------------0--|--------5-
...... Helaas, de rest is alleen voor leden /  Members only please subscribe .......
Gitaar Tabs

Speel de Tab van Anouk - Tom Waits

Meld je direct aan, pak je gitaar en speel binnen 15 sec mee - Tab van Anouk - Tom Waits.
Reeds 65.000 gitaristen zijn je voorgegaan.

DIRECT AANMELDEN  

Beoordeel deze tab: Anouk - Tom Waits


Comments: Anouk - Tom Waits - tab

5

Plaats bericht voor Anouk - Tom Waits

Via onderstaande formulier kan je een comment plaatsen bij de tab van Anouk met Tom Waits.