Gratis ProTab

Landelijke Database Correcte Gitaar Tabs

Een landelijke database met goed oefenmateriaal in verschillende muziekgenre's en niveau's. Notenschrift, tabs en akkoorddiagrammen kunnen hier op variabele snelheid worden afgespeeld met audio en fretboard fingering.

Elke maand correcte tabs  Meer Info
Gratis toegang voor muziek docenten.
song: Tom Waits
artist: Anouk
tab: Date: saturday 15 jan 2000
From: Erik Järdhage 
Subjekt: "Tom Waits" by Anouk from the album "Urban Solitude"


general comments
This tab is pritty long but its mostly the same after you have learned the beginning, after the chorus its only repitation but its still werth locking through the hole tab (i think). 
e|--------------------|--------4--4-----4--|
b|-----------------0--|--------5--5--4--5--|
g|-----------1--------|--------6--6--6--6--|
d|--------2-----2-----|-----6--------6--6--|
a|-----2--------------|--4-----------------|
e|--0-----------------|--------------------|




e|--------------------|--------4--4-----4--|
b|-----------------0--|--------5--5--4--5--|
g|-----------1--------|--------6--6--6--6--|
d|--------2-----2-----|-----6--------6--6--|
a|-----2--------------|--4-----------------|
e|--0-----------------|--------------------|




e|--------------------|--------4--4----------|
b|-----------------0--|--------5--5---5/4----|
g|-----------1--------|--------6--6-------6--|
d|--------2-----2-----|-----6----------------|
a|-----2--------------|--4-------------------|
e|--0-----------------|----------------------|
                I was dreaming last night
e|--------------------|--------4--4-----4--|
b|-----------------0--|--------5--5--4--5--|
g|-----------1--------|--------6--6--6--6--|
d|--------2-----2-----|-----6--------6--6--|
a|-----2--------------|--4-----------------|
e|--0-----------------|--------------------|
         A frigment of my brain

e|--------------------|--------4--4----------|
b|-----------------0--|--------5--5---5/4----|
g|-----------1--------|--------6--6-------6--|
d|--------2-----2-----|-----6----------------|
a|-----2--------------|--4-------------------|
e|--0-----------------|----------------------|
               downtown  train   and we had noware to
e|-----------------|---------------|
b|-----------5--5--|---------------|
g|-----------6--6--|-----------8---|
d|--------7-----7--|--------9------|
a|-----7-----------|-----9---------|
e|--5--------------|--7------------|
    go....

e|--------------------|--------4--4----------|
b|-----------------0--|--------5--5---5/4----|
g|-----------1--------|--------6--6-------6--|
d|--------2-----2-----|-----6-------------
...... Helaas, de rest is alleen voor leden /  Members only please subscribe .......
Gitaar Tabs

Speel de Tab van Anouk - Tom Waits

Meld je direct aan, pak je gitaar en speel binnen 15 sec mee - Tab van Anouk - Tom Waits.
Reeds 65.000 gitaristen zijn je voorgegaan.

DIRECT AANMELDEN >> Anouk - Tom Waits <<  

Beoordeel deze tab: Anouk - Tom Waits


Comments: Anouk - Tom Waits - tab

5

Plaats bericht voor Anouk - Tom Waits

Via onderstaande formulier kan je een comment plaatsen bij de tab van Anouk met Tom Waits.