song: Tom Waits
artist: Anouk
tab: Date: saturday 15 jan 2000
From: Erik Järdhage 
Subjekt: "Tom Waits" by Anouk from the album "Urban Solitude"


general comments
This tab is pritty long but its mostly the same after you have learned the beginning, after the chorus its only repitation but its still werth locking through the hole tab (i think). 
e|--------------------|--------4--4-----4--|
b|-----------------0--|--------5--5--4--5--|
g|-----------1--------|--------6--6--6--6--|
d|--------2-----2-----|-----6--------6--6--|
a|-----2--------------|--4-----------------|
e|--0-----------------|--------------------|




e|--------------------|--------4--4-----4--|
b|-----------------0--|--------5--5--4--5--|
g|-----------1--------|--------6--6--6--6--|
d|--------2-----2-----|-----6--------6--6--|
a|-----2--------------|--4-----------------|
e|--0-----------------|--------------------|




e|--------------------|--------4--4----------|
b|-----------------0--|--------5--5---5/4----|
g|-----------1--------|--------6--6-------6--|
d|--------2-----2-----|-----6----------------|
a|-----2--------------|--4-------------------|
e|--0-----------------|----------------------|
                I was dreaming last night
e|--------------------|--------4--4-----4--|
b|-----------------0--|--------5--5--4--5--|
g|-----------1--------|--------6--6--6--6--|
d|--------2-----2-----|-----6--------6--6--|
a|-----2--------------|--4-----------------|
e|--0-----------------|--------------------|
         A frigment of my brain

e|--------------------|--------4--4----------|
b|-----------------0--|--------5--5---5/4----|
g|-----------1--------|--------6--6-------6--|
d|--------2-----2-----|-----6----------------|
a|-----2--------------|--4-------------------|
e|--0-----------------|----------------------|
               downtown  train   and we had noware to
e|-----------------|---------------|
b|-----------5--5--|---------------|
g|-----------6--6--|-----------8---|
d|--------7-----7--|--------9------|
a|-----7-----------|-----9---------|
e|--5--------------|--7------------|
    go....

e|--------------------|--------4--4----------|
b|-----------------0--|--------5--5---5/4----|
g|-----------1--------|--------6--6-------6--|
d|--------2-----2-----|-----6----------------|
a|-----2--------------|--4-------------------|
e|--0-----------------|----------------------|
                So we got of          walk
e|--------------------|--------4--4--4----4--|
b|-----------------0--|--------5--5--4--4-5--|
g|-----------1--------|--------6--6--6--6-6--|
d|--------2-----2-----|-----6----------------|
a|-----2--------------|--4-------------------|
e|--0-----------------|----------------------|
           in the        rain
e|--------------------|--------4--4----------|
b|-----------------0--|--------5--5---5/4----|
g|-----------1--------|--------6--6-------6--|
d|--------2-----2-----|-----6----------------|
a|-----2--------------|--4-------------------|
e|--0-----------------|----------------------|
              sad you            an
De rest van dit nummer alleen voor Gitaartabs leden! Maak gratis Gitaartabs account aan . 
Gitaar Tabs

Speel de Tab ♪ Anouk - Tom Waits

Meld je aan en speel binnen 15 sec mee met Tab ♫ Anouk - Tom Waits.
Reeds 65.000 gitaristen zijn je voorgegaan.

Gratis Aanmelden Gitaartabs - Basis

Beoordeel deze Gitaartab: Anouk - Tom Waits

Comments Anouk - Tom Waits - tab

Plaats opmerkingen e.o. suggestie voor Anouk - Tom Waits