Bm    A   F#m   E    D*   E*   

e|----2----0---------0---------------|
B|----3----2----2----0----3----5-----|
G|----4----2----2----1----2----4-----|
D|----4----2----4----2----4----6-----|
A|----2----0----4----2----5----7-----|
E|--------------2----0---------------|


INTRO / VERSES
     
    Bm                     A
e|-----------------------------------|
B|-----------3----------3------2--2--|
G|--------4--------------------2--2--|
D|-----4-------------4---------2--2--|
A|--2-------------2--------0---------|
E|-----------------------------------|

    F#m                    E
e|-----------------------------------|
B|-----------------------------------|
G|-----------2----------2------1--1--|
D|--------4--------------------2--2--|
[ProTab] Play streaming 
Gitaar Tabs

Play guitar Tab ♪ Dotan - Hungry

Register for free o Guitar music and play along withing 15 sec with - Tab ♫ Dotan - Hungry.
Already 65.000 register guitarist.

Free Guitar registration

Rate this guitartabs: Dotan - Hungry


Comments: Dotan - Hungry - tab

5
Gerard

Gerard 2015-05-31



Plaats bericht voor Dotan - Hungry

Via onderstaande formulier kan je een comment plaatsen bij de tab van Dotan met Hungry.

>