Bm    A   F#m   E    D*   E*   

e|----2----0---------0---------------|
B|----3----2----2----0----3----5-----|
G|----4----2----2----1----2----4-----|
D|----4----2----4----2----4----6-----|
A|----2----0----4----2----5----7-----|
E|--------------2----0---------------|


INTRO / VERSES
     
    Bm                     A
e|-----------------------------------|
B|-----------3----------3------2--2--|
G|--------4--------------------2--2--|
D|-----4-------------4---------2--2--|
A|--2---------
De rest van dit nummer alleen voor Gitaartabs leden! Maak gratis Gitaartabs account aan . 
Gitaar Tabs

Download, print en speel de Tab ♪ Dotan - Hungry

Meld je aan en print, download of speel binnen 15 sec mee Tab ♫ Dotan - Hungry.
Reeds 70.000 gitaristen zijn je voorgegaan.

Gratis Aanmelden Gitaartabs

Wat vind jij van deze song? Dotan - Hungry

Comments Dotan - Hungry - tab

Gerard

Gerard 2015-05-31


Plaats opmerkingen e.o. suggestie voor Dotan - Hungry