Streaming Bladmuziek ProTabs

Correcte Tabs - ProTABS

Live meespelen icm video
Wekelijks nieuwe Top 40 songs
Geschreven door gitaardocenten

Vanaf € 5,95 per maand!
Info ProTabs
Streaming Bladmuziek ProTabs

Online Gitaarles

Voor beginners & gevorderden
Lessen incl. begeleidingsmateriaal
Persoonlijke feedback

Vanaf € 9,95 per maand!
Info Online Gitaarles
G= 32xxx3
D= xx0232
C= x32x1x
Fadd9= x03213
F= xx3210
Am= x02210

Intro 2X:  & Bridge 4X
    [G                                        
    [e|---------3------------3------------3-- 
    [B|-------------0------------0------------
    [G|-----------------0------------0--------
    [D|-----------------------------------------
    [A|-----------------------------------------
    [E|----3-----------------------------------
    [D
    [e|---------2----------
    [B|------------3-------
    [G|----------------2---
    [D|----0---------------
    [A|---------------------
    [E|---------------------
    [C
    [e|---------0----------
    [B|------------1-------
    [G|----------------0--
    [D|---------------------
    [A|----3---------------
    [E|---------------------

Verse 1 & 2 & 3:
    [G                                        
    [e|---------3------------3------------3-- 
    [B|-------------0------------0------------
    [G|-----------------0------------0--------
    [D|-----------------------------------------
    [A|-----------------------------------------
    [E|----3-----------------------------------
    [D
    [e|---------2----------
    [B|------------3-------
    [G|----------------2---
    [D|----0---------------
    [A|---------------------
    [E|---------------------
    [C
    [e|---------0----------
    [B|------------1-------
    [G|----------------0--
    [D|---------------------
    [A|----3---------------
    [E|---------------------


Fadd9: 
e|---------3-------------3--------3----
B|-------------1------------1-----------
G|----------------2------------2-------
D|---------------------------------------
A|----0---------------------------------
E|---------------------------------------
F:
e|---------0------------0--------------0-
B|-------------1-------------1-----------
G|-----------------2------------2--------
D|-----3----------------------------------
A|----------------------------------------
E|-----------------------------------------


Chrorus: 2X
G
e|---------3------------3------------3--
B|-------------0------------0------------
G|-----------------0------------0--------
D|-----------------------------------------
A|-----------------------------------------
E|----3--------------------------
...... Helaas, de rest is alleen voor leden /  Members only please subscribe .......
Gitaar Tabs

Speel de Tab van Ilse De Lange - I Love You [ver 2]

Meld je direct aan, pak je gitaar en speel binnen 15 sec mee - Tab van Ilse De Lange - I Love You [ver 2].
Reeds 65.000 gitaristen zijn je voorgegaan.

DIRECT AANMELDEN  

Beoordeel deze tab: Ilse De Lange - I Love You [ver 2]


Comments: Ilse De Lange - I Love You [ver 2] - tab

5

Plaats bericht voor Ilse De Lange - I Love You [ver 2]

Via onderstaande formulier kan je een comment plaatsen bij de tab van Ilse De Lange met I Love You [ver 2].