Streaming Bladmuziek ProTabs

Correcte Tabs - ProTABS

Live meespelen icm video
Wekelijks nieuwe Top 40 songs
Geschreven door gitaardocenten

Vanaf € 5,95 per maand!
Info ProTabs
Streaming Bladmuziek ProTabs

Online Gitaarles

Voor beginners & gevorderden
Lessen incl. begeleidingsmateriaal
Persoonlijke feedback

Vanaf € 9,95 per maand!
Info Online Gitaarles
Lonely too



Intro:
   C             G             F       G     C            
e|------------------------------------------------------
B|--------1------------0-------------1-------------1----
G|------0---0--------0---0---------2---0---------0------
D|----2-------2----0-------0-----3-------0-----2--------
A|--3----------------------------------------3----------
D|---------------3-------------1------------------------


Verse:
   C             G             F             G            C
e|-----------------------------------------------------------------------
B|--------1------------0-------------1-------------0-------------1-------
G|------0---0--------0---0---------2---2---------0---0---------0---0-----
D|----2-------2----0-------0-----3-------3-----0-------0-----2-------2---
A|--3------------------------------------------------------3-----------3-
D|---------------3-------------1-------------3---------------------------


And for F G you play:
   F        G            
e|--------------
B|------
...... Helaas, de rest is alleen voor leden /  Members only please subscribe .......
Gitaar Tabs

Speel de Tab van Ilse De Lange - Lonely Too

Meld je direct aan, pak je gitaar en speel binnen 15 sec mee - Tab van Ilse De Lange - Lonely Too.
Reeds 65.000 gitaristen zijn je voorgegaan.

DIRECT AANMELDEN  

Beoordeel deze tab: Ilse De Lange - Lonely Too


Comments: Ilse De Lange - Lonely Too - tab

5
darm87

Darm87 2011-05-15

het is niet

de aap die geen bananen eet

het is

een aap die geen bananen eet!


Gerard

Gerard 2006-10-20

Gewoon een gemakkelijk nummer om te leren spelen! Grijns Knipoog



Plaats bericht voor Ilse De Lange - Lonely Too

Via onderstaande formulier kan je een comment plaatsen bij de tab van Ilse De Lange met Lonely Too.