Lonely too



Intro:
   C             G             F       G     C            
e|------------------------------------------------------
B|--------1------------0-------------1-------------1----
G|------0---0--------0---0---------2---0---------0------
D|----2-------2----0-------0-----3-------0-----2--------
A|--3----------------------------------------3----------
D|---------------3-------------1------------------------


Verse:
   C             G             F             G            C
e|-----------------------------------------------------------------------
B|--------1------------0-------------1-------------0-------------1-------
G|------0---0--------0---0--------
De rest van dit nummer alleen voor Gitaartabs leden! Maak gratis Gitaartabs account aan . 
Gitaar Tabs

Speel de Tab ♪ Ilse De Lange - Lonely Too

Meld je aan en speel binnen 15 sec mee met Tab ♫ Ilse De Lange - Lonely Too.
Reeds 65.000 gitaristen zijn je voorgegaan.

Gratis Aanmelden Gitaartabs - Basis

Beoordeel deze Gitaartab: Ilse De Lange - Lonely Too

Comments Ilse De Lange - Lonely Too - tab

darm87

Darm87 2011-05-15

het is niet

de aap die geen bananen eet

het is

een aap die geen bananen eet!


Gerard

Gerard 2006-10-20

Gewoon een gemakkelijk nummer om te leren spelen! Grijns Knipoog


Plaats opmerkingen e.o. suggestie voor Ilse De Lange - Lonely Too