RIFF:

e|----------------------8--10-------8-----------8--10-------8------|
B|--6------8--10-----------------------10----------------------10--|
G|-----------------------------------------------------------------|
D|----------------------7--8--------7-----------7--8--------7------|
A|--5------7--8------------------------8-----------------------8---|
E|-----------------------------------------------------------------|

e|----------------------------8--|
B|----10---10--8-----------------|
G|---------------------10--9-----|
D|-------------------------------|
A|--8----8-----------------------|
E|-------------8-------8---8-----|


INTRO: riff x1

VERSE: riff x2
Tried to keep you close to me,
But life got in between
Tried to square not being there
But think that I should have been

Bb
Hold back the river, let me look in your eyes
Bb
Hold back the river so I
F
Can stop for a minute and see where you hide
F
Hold back the river, hold back

VERSE: riff x2
Once upon a dear friend, life
We rode our bik
De rest van dit nummer alleen voor Gitaartabs leden! Maak gratis Gitaartabs account aan . 
Gitaar Tabs

Download, print en speel de Tab ♪ James Bay - Hold Back The River

Meld je aan en print, download of speel binnen 15 sec mee Tab ♫ James Bay - Hold Back The River.
Reeds 70.000 gitaristen zijn je voorgegaan.

Gratis Aanmelden Gitaartabs

Wat vind jij van deze song? James Bay - Hold Back The River

Comments James Bay - Hold Back The River - tab

Plaats opmerkingen e.o. suggestie voor James Bay - Hold Back The River